2013, Sep
W

Disco

in Australia (2000), Tablature, by jaman
- disco (afternoon) -
- howie day -
- tab -

capo on 2nd fret - relative to capo

   a   em
e -0---0-0--(0)--3--2--0--3--2--0--|
b -0---0-0--(0)--0--0--0--0--0--0--|
g -6---7-6--(2)--0--0--0--0--0--0--|
d -7---0-7--(2)--2--2--2--0--0--0--|
a -7---7-7--(0)--2--2--2--2--2--2--|
e -5---5-5-------0--0--0--0--0--0--|
   "every night is disco night..."

   c  d 
e -0--2--|
b -1--3--|
g -0--2--|
d -2--0--|
a -3--0--|
e -------|
  "is there something we can do..."

   Bb  c   d  em  
e -----0---2--3--2--0--3--2--0--0--|
b -3---1---3--0--0--0--0--0--0--0--| 
g -3---0---2--0--0--0--0--0--0--0--|
d -3---2---0--2--2--2--2--2--2--0--|
a -1---3---0--2--2--2--2--2--2--2--|
e ------------0--0--0--0--0--0--0--|
  "you are...something new..."

transcribed - anthony page - 044287p@acadiau.ca
 
2013, Sep
W

Morning After

in Australia (2000), Tablature, by jaman
- morning after -
- howie day -

verse -
   am      f       c       g
e ----------------(3)-(3)--3--|
b -0---1---0---1---0---1---0--|
g -2---2---2---2---0---0---0--|
d -2---2---3---3---2---2---0--|
a -0---0-------3---3---3---x--|
e -------------------------3--|

- chorus -
    em  f   c       g
e -(3)--1---0-------3--|
b -(3)--1---0(h1)---3--|
g --0---2---0-------0--|
d --2---3---2-------0--|
a --2---3---3-------x--|
e --0---1-----------3--|

- alternate chorus -
   em       f     c    g
e -7----10--8-----8----3--|
b -7h8--8---10----8----3--|
g -7----7---10----9----4--|
d -7h9--9---10----10---5--|
a -7----7---8-----10---5--|
e -0----0---------8----3--|

- bridge -
  emaj7   f   c      g
e -0------1---0------3--|
b -3------1---1(h3)--3--|
g -1------2---0------0--|
d -0------3---2------0--|
a -2------3---3------x--|
e -0------1----------3--|

transcribed - anthony page - 044287p@acadiau.ca
 
2013, Sep
W

More You Understand

in Australia (2000), Tablature, by jaman
more you understand
howie day
australia (2000)
transcribed: anthony g page <044287p@acadiau.ca>
11.11.00

e |--0-----0-------0--0------0------0------0--------0--0--0-
b |--1-----0------h1--3------1------0h1----0--------0--0--0-
g |--2-----2-------2--2------2------2------2--------1--2-p1-
d |--2-----2-------2--2------2------2------3--------2--2--2-
a |--0-----0----------0------0------0------3--------2--2--2-
E |---------------------------------------------------------

e |--0-----0-------0--0------0------0------0------0-----0------0--0--0-
b |--1-----0------h1--3------1------0h1----0------0-----0------0--0--0-
g |--2-----2-------2--2------2------2------2-----/4-----2------1--2-p1-
d |--2-----2-------2--2------2------2------3-----/4-----3------2--2--2-
a |--0-----0----------0------0------0------3-----/5-----3------2--2--2-
E |--------------------------------------------------------------------

e |--0------------0---------0--0-----------0-----------0------0------------------0--0--0-
b |--1------------0--------h1--3-----------1-----------0h1----0------------------0--0--0-
g |--2------------2---------2--2-----------2-----------2------2------------------1--2-p1-
d |--2------------2---------2--2-----------2-----------2------3------------------2--2--2-
a |--0------------0------------0-----------0-----------0------3------------------2--2--2-
E |--------------------------------------------------------------------------------------
   a thousand years ago today, we as two would be the same      i'd fall for you

e |--0---------0---------------0--0-----------0-----------0-----
b |--1---------0--------------h1--3-----------1-----------0h1---
g |--2---------2---------------2--2-----------2-----------2-----
d |--2---------2---------------2--2-----------2-----------2-----
a |--0---------0------------------0-----------0-----------0-----
E |-------------------------------------------------------------
     customize your relationship, do you feel the same about

e |-----0-----------------0----------0---0--0--0-
b |-----0-----------------0----------0---0--0--0-
g |-----2----------------/4----------2---1--2-p1-
d |-----3----------------/5----------3---2--2--2-
a |-----3----------------/5----------3---2--2--2-
E |----------------------------------------------
   your flirt with love, and your certainty

e |-----1------------------------3-------------------------------
b |-----3------------------------3-------------------------------
g |-----2------------------------0-------------------------------
d |-----0------------------------0-------------------------------
a |-----0------------------------2-------------------------------
E |------------------------------3-------------------------------
    the cia wouldn't bother you, they would always know the truth

e |--3----------------------0------0--
b |--3----------------------1------0--
g |--0----------------------2------2--
d |--2----------------------2------2--
a |--2----------------------0------0--
E |--0--------------------------------
         you never know who came

e |-----1---------------------------------3-------------------------------
b |-----3---------------------------------3-------------------------------
g |-----2---------------------------------0-------------------------------
d |-----0---------------------------------0-------------------------------
a |-----0---------------------------------2-------------------------------
E |---------------------------------------3-------------------------------
    and i would fall a thousand miles and you would fall fast to denial

e |-0--0----------------3-------------------0--------------------------0----
b |-1--3----------------3-------------------0--------------------------1----
g |-0--0----------------0-------------------1--------------------------2----
d |-2--2----------------0-------------------0--------------------------3----
a |-3--3----------------2-------------------2-------------------------------
E |---------------------3-------------------0-------------------------------
       the more you are,  the more you need,  and the more you'll understand

e |-0--0--------------------3-------------------0--------------------------0----0-----0--
b |-1--3--------------------3-------------------0--------------------------1----0-----1--
g |-0--0--------------------0-------------------1--------------------------2----2-----2--
d |-2--2--------------------0-------------------0--------------------------2----2-----3--
a |-3--3--------------------2-------------------2--------------------------0----0--------
E |-------------------------3-------------------0----------------------------------------
       the more you'll know,  the more you feel,  and the more you'll understand, ya, ya

e |--0-------0-------0--0------0------0------0------0--
b |--1-------0------h1--3------1------0h1----0------0--
g |--2-------2-------2--2------2------2------2------1--
d |--2-------2-------2--2------2------2------3------2--
a |--0-------0----------0------0------0------3------2--
E |----------------------------------------------------

e |-----0---------0-------------------0--0--------0-----------0------0---------------0--
b |-----1---------0------------------h1--3--------1-----------0h1----0---------------0--
g |-----2---------2-------------------2--2--------2-----------2------2---------------1--
d |-----2---------2-------------------2--2--------2-----------2------3---------------2--
a |-----0---------0----------------------0--------0-----------0------3---------------2--
E |-------------------------------------------------------------------------------------
   your sentiments are screaming out the felony of who's left out,     it's not you

e |-----0----------0----------0--0--------0-----------0------
b |-----1----------0---------h1--3--------1-----------0h1----
g |-----2----------2----------2--2--------2-----------2------
d |-----2----------2----------2--2--------2-----------2------
a |-----0----------0-------------0--------0-----------0------
E |----------------------------------------------------------
   it's you for me,  me for you, we can always follow through

e |-----0-----------------0-------------0----0--0--0-
b |-----0-----------------0-------------0----0--0--0-
g |-----2----------------/4-------------2----1--2-p1-
d |-----3----------------/5-------------3----2--2--2-
a |-----3----------------/5-------------3----2--2--2-
E |--------------------------------------------------
   this makeshift date, but why give up your love

e |-----1---------------------------3-------------------------3---------------------0--0-
b |-----3---------------------------3-------------------------3---------------------1--0-
g |-----2---------------------------0-------------------------0---------------------2--2-
d |-----0---------------------------0-------------------------2---------------------2--2-
a |-----0---------------------------2-------------------------2---------------------0--0-
E |---------------------------------3-------------------------0--------------------------
    the way it goes, call her name  do you ever feel the same,  and do you know who came

e |--1-------------------------------3------------------------
b |--3-------------------------------3------------------------
g |--2-------------------------------0------------------------
d |--0-------------------------------0------------------------
a |--0-------------------------------2------------------------
E |----------------------------------3------------------------
   a year ago, a thousand miles, how far away we were to smile

e |--0-------------------0-------------------0-----------------------
b |--1-------------------1-------------------1-----------------------
g |--0-------------------2-------------------2-----------------------
d |--2-------------------2-------------------3-----------------------
a |--3-------------------0-------------------------------------------
E |------------------------------------------------------------------
       too far gone to save, too far gone to save, and you'll know...

e |-0--0----------------3-------------------0--------------------------0----
b |-1--3----------------3-------------------0--------------------------1----
g |-0--0----------------0-------------------1--------------------------2----
d |-2--2----------------0-------------------0--------------------------3----
a |-3--3----------------2-------------------2-------------------------------
E |---------------------3-------------------0-------------------------------
       the more you are,  the more you need,  and the more you'll understand

e |-0--0--------------------3-------------------0--------------------------0----0-----0--
b |-1--3--------------------3-------------------0--------------------------1----0-----1--
g |-0--0--------------------0-------------------1--------------------------2----2-----2--
d |-2--2--------------------0-------------------0--------------------------2----2-----3--
a |-3--3--------------------2-------------------2--------------------------0----0--------
E |-------------------------3-------------------0----------------------------------------
       the more you'll know,  the more you feel,  and the more you'll understand, ya, ya

e |----2------------------------------------------------------0-----0------
b |----3------------------------------------------------------0-----0------
g |----4------------------------------------------------------4-----3------
d |----4------------------------------------------------------5-----4------
a |----2------------------------------------------------------5-----4------
E |------------------------------------------------------------------------
   the cia is after you, what the hell is there to do but run    we made...

e |--2----------------------------------------------0--------------------0-
b |--3----------------------------------------------0--------------------0-
g |--4----------------------------------------------4--------------------3-
d |--4----------------------------------------------5--------------------4-
a |--2----------------------------------------------5--------------------4-
E |------------------------------------------------------------------------
   a promise to eternity tucked away for you to see   on your way you'll be

e |-0-------------------------------0-----------------------------2------------------2--2-
b |-0-------------------------------0-----------------------------2------------------3--3-
g |-0-------------------------------6-----------------------------2------------------4--4-
d |-2-------------------------------7-----------------------------4------------------4--4-
a |-2-------------------------------7-----------------------------4------------------2--0-
E |-0-------------------------------------------------------------2-----------------------
    baffeled by relationships, your psyched up for the major lift   what you want to say

e |-0---------------------------------------0-------------------------
b |-0---------------------------------------0-------------------------
g |-0---------------------------------------6-------------------------
d |-2---------------------------------------7-------------------------
a |-2---------------------------------------7-------------------------
E |-0-----------------------------------------------------------------
    caught to blame, they erased your name  we will always be the same

e |-2------------------0-------------------2--------------------------3----
b |-3------------------0-------------------2--------------------------3----
g |-2------------------6-------------------3--------------------------0----
d |-0------------------7-------------------2--------------------------0----
a |-0------------------7-------------------4--------------------------2----
E |----------------------------------------2--------------------------3----
      the more you are,  the more you need,  and the more you'll understand

e |-2----------------------0-------------------2--------------------------3-------
b |-3----------------------0-------------------2--------------------------3-------
g |-2----------------------6-------------------3--------------------------0-------
d |-0----------------------7-------------------2--------------------------0-------
a |-0----------------------7-------------------4--------------------------2-------
E |--------------------------------------------2--------------------------3-------
      the more you'll know,  the more you feel,  and the more you'll understand...

lead outro

e |-------------------------------------------
b |-------------------------------------------
g |-7--9--11----6--7--9--6--7--9----7--9--11--
d |-------------------------------------------
a |-5--7--9-----4--5--7--4--5--7----5--7--9---
E |-------------------------------------------
 
2013, Sep
W

Everything Else

in Australia (2000), Tablature, by jaman
- everything else -
- howie day -

- verse -
    dm   gm   c  c# dm
e --5----3----5--4--5---|
b --6----3----5--6--7---|
g --7----3----5--6--7---|
d --7----5----5--6--7---|
a --5----5----3--4--5---|
e -------3--------------|

- chorus -
   f   am    dm  c   Bb  d#7
e -1---5or0--1---0---1---6--|
b -1---5or1--3---1---3---8--|
g -2---5or2--2---0---3---6--|
d -3---7or2--0---2---3---8--|
a --------0--0---3---1---6--|
e --------------------------|

- bridge -
    dm   gm   c  c# dm
e --1----3----0--x--1---|
b --3----3----1--1--3---|
g --2----3----0--x--2---|
d --0----0----2--3--0---|
a --0----x----3--4--0---|
e -------3--------------|
  "you want that girl" 

transcribed - anthony page - 044287p@acadiau.ca
 
2013, Sep
W

Kristina

in Australia (2000), Tablature, by jaman
- kristina -
- howie day -

- verse -
    d            bm     gm7 a7       d         a   c   g
e --2---2/3--0---2--0---3---5-or-0-|-2---2/3---0---0-----|
b --3---3----3---3--3---3---5-or-2-|-3---3-----0---0---0-|
g --2---2----2---4--4---3---6-or-0-|-2---2-----6---0---0-|
d --0---0----0---4--4---3---5-or-2-|-0---0-----7---2---0-|
a --0---0----0---2--2---5---7-or-0-|-0---0-----7---3---2-|
e --------------------------5------|-------------------3-|

- chorus -
   c   g   d   d7
e -0---3---2---2--|
b -0---3---3---1--|
g -0---0---2---2--|
d -2---0---0---0--|
a -3---x---0---0--|
e -----3------(2)-|

- outro -
   d       a   d   g
e -2h3p0---0---0---3--|
b -3-------0---0---3--|
g -2-------6---0---0--|
d -0-------7---2---0--|
a -0-------7---3---x--|
e -----------------3--|

transcribed - anthony page - 044287p@acadiau.ca
 
2013, Sep
W

Ghost

in Australia (2000), Tablature, by jaman
ghost
howie day
australia (2000)
transcribed: anthony g page <044287p@acadiau.ca>
11.12.00 

e |----0------0---0--0---0---0---0------0----------0---0--0---0---0---0--
b |----5------0---0--0---0---0---0------5----------0---0--0---0---0---0--
g |----6------6---6--1---2---1---2------6----------6---6--1---2---1---2--
d |----6------7------2---2---2---2------6----------7------2---2---2---2--
a |-4--4------7------2---2---2---2------4------7---7------2---2---2---2--
E |-------4---5---7--0---0---0---0---------4---5---5---7--0---0---0---0--

e |--0----------------------------0------------------------------0---0---0---0--
b |--5----------------------------0-----------------------0------0---0---0---0--
g |--6----------------------------6-----------------------6------1---2---1---2--
d |--6----------------------------7------------------------------2---2---2---2--
a |--4----------------------------7------------------------------2---2---2---2--
E |---------------------------4---5-----------------------7------0---0---0---0--
   lately i've been thinking,   lately i've been dreaming with you

e |-------0-----------------------------------0----------------------0-----0---0---2--
b |-------5-----------------------------------0----------------0-----0-----0---0---0--
g |-------6-----------------------------------6----------------6-----1-----2---1---1--
d |-------6-----------------------------------7----------------------2-----2---2---2--
a |-------4-----------------------------------7----------------------2-----2---2---2--
E |---------------------------------------4---5----------------7-----0-----0---0---0--
   i'm so resistant to this type of thinking, oh now, it's shining through

e |-------0------------------------0-----------------------------0-----0---0---2--
b |-------5------------------------0-----------------------0-----0-----0---0---0--
g |-------6------------------------6-----------------------6-----1-----2---1---1--
d |-------6------------------------7-----------------------------2-----2---2---2--
a |-------4------------------------7-----------------------------2-----2---2---2--
E |----------------------------4---5-----------------------7-----0-----0---0---0--
   i was alone for the last time before my nights vacation with you

e |--0----------------------------0----------------------0-----0---0---2--
b |--5----------------------------0------------------0---0-----0---0---0--
g |--6----------------------------6------------------6---1-----2---1---1--
d |--6----------------------------7----------------------2-----2---2---2--
a |--4----------------------------7----------------------2-----2---2---2--
E |-------------------------4-----5------------------7---0-----0---0---0--
   alive from the first now i'm denied by the ghost of   you

e |-------0------------------------------0----------------0-----0---0---0---2---
b |-------5------------------------------0----------------0-----0---2---0---0---
g |-------6------------------------------6----------------1-----2---1---1---1---
d |-------6------------------------------7----------------2-----2---2---2---2---
a |-------4------------------------------7----------------2-----2---2---2---2---
E |--------------------------------------5----------------0-----0---0---0---0---
   oh you take yourself a photograph and laugh at me   please

e |---------------0------------------
b |---------------0------------------
g |---------------6------------------
d |---------------6------------------
a |---------------4------------------
E |----------------------------------
   i know there's litle use in crying

e |------------0------------------------------0-------0---0---0--
b |------------0--------------------0---------0-------0---0---0--
g |------------6--------------------6---------1-------2---1---2--
d |------------7------------------------------2-------2---2---2--
a |------------7------------------------------2-------2---2---2--
E |--4---------5--------------------7---------0-------0---0---0--
     it's more wide awake and dying then i'm used to

e |---------------0--------------------------
b |---------------5--------------------------
g |---------------6--------------------------
d |---------------6--------------------------
a |---------------4--------------------------
E |------------------------------------------
   i thought we'd walk these streets together

e |----------0-------------------------------0-------0---0---0--
b |----------0-----------------------0-------0-------0---0---0--
g |----------6-----------------------6-------1-------2---1---2--
d |----------7-------------------------------2-------2---2---2--
a |----------7-------------------------------2-------2---2---2--
E |--4-------5-----------------------7-------0-------0---0---0--
     now i'm hoping that i'll never have to meet you

e |-----0------------------------------0--------------------------0-----0---0---0---2-
b |-----5------------------------------0-------------------0------0-----0---2---0---0-
g |-----6------------------------------6-------------------6------1-----2---1---1---1-
d |-----6------------------------------7--------------------------2-----2---2---2---2-
a |-----4------------------------------7--------------------------2-----2---2---2---2-
E |-------------------------------4----5-------------------7------0-----0---0---0---0-
   step aside from all this anger, and somewhere in between i can feel you

e |----0----------------------------------------0---------
b |----5----------------------------------------0---------
g |----6----------------------------------------6---------
d |----6----------------------------------------7---------
a |----4----------------------------------------7---------
E |------------------------------------4--------5---------
   and ask me should we try again, i'm thinking no, y'know

e |------------------0---------------------------2-------
b |------------------0---------------------------0-------
g |------------------1---------------------------1-------
d |------------------2---------------------------2-------
a |------------------2---------------------------2-------
E |--------------7---0---------------------------0-------
   it's not what i believe in, it's not what i believe in

e |-------------0------------------------------0----------------0-----0----0---2---
b |-------------5------------------------------0----------------0-----0----0---0---
g |-------------6------------------------------6----------------1-----2----1---1---
d |-------------6------------------------------7----------------2-----2----2---2---
a |-------------4------------------------------7----------------2-----2----2---2---
E |--------------------------------------------5----------------0-----0----0---0---
   oh won't you take yourself a photograph and laugh at me   please

e |----0------------------------------0----------------0-----0----2---0---
b |----5------------------------------0----------------0-----0----0---0---
g |----6------------------------------6----------------1-----2----1---1---
d |----6------------------------------7----------------2-----2----2---2---
a |----4------------------------------7----------------2-----2----2---2---
E |-----------------------------------5----------------0-----0----0---0---
   you make yourself a photograph and laugh at me   please

e |---0-------0------------------0-------------0------------0--------------0----
b |---5-------0------------------0-------------0------------0--------------0----
g |---6-------6------------------8-------------6------------6--------------1----
d |---6-------7------------------9-------------6------------7--------------2----
a |---4-------7------------------9-------------4------------7--------------2----
E |-------4---5------------------7----------------------4---5--------------0----
   no i wanna taste you love, no i, no i...no i, just wanna taste you love, no i

e |----0------0------0---0---0---0----
b |----5------0------0---0---0---0----
g |----6------6------1---2---1---2----
d |----6------7------2---2---2---2----
a |----4------7------2---2---2---2----
E |-------4---5---7--0---0---0---0----

e |--0---------------------------------0----------------------------------0---0---0---0--
b |--5---------------------------------0----------------------------------0---0---0---0--
g |--6---------------------------------6----------------------------------1---2---1---2--
d |--6---------------------------------7----------------------------------2---2---2---2--
a |--4---------------------------------7----------------------------------2---2---2---2--
E |----------------------------4-------5---------------------------7------0---0---0---0--
     standing in your shoes i turn and now you're standing bare in my doorway

e |--------0--------------------------------0---------------------------0------0---0---0--
b |--------5--------------------------------0---------------------------0------0---0---0--
g |--------6--------------------------------6---------------------------1------2---1---2--
d |--------6--------------------------------7---------------------------2------2---2---2--
a |--------4--------------------------------7---------------------------2------2---2---2--
E |-------------------------------4---------5-----------------7---------0------0---0---0--
   i only wish that i had been prepared i'm gonna have to go along with your way

e |-----0-------------------------------0--------------------------------0----0---0--0--2-
b |-----5-------------------------------0--------------------------------0----0---2--0--0-
g |-----6-------------------------------6--------------------------------1----2---1--1--2-
d |-----6-------------------------------7--------------------------------2----2---2--2--2-
a |-----4-------------------------------7--------------------------------2----2---2--2--2-
E |------------------------------4------5-------------------------7------0----0---0--0--0-
   just take the plastic camera out its in the pants you borrowed in the driveway

e |--0----------------------------0----------------------0-----0---0---2--
b |--5----------------------------0------------------0---0-----0---0---0--
g |--6----------------------------6------------------6---1-----2---1---1--
d |--6----------------------------7----------------------2-----2---2---2--
a |--4----------------------------7----------------------2-----2---2---2--
E |-------------------------4-----5------------------7---0-----0---0---0--
   alive from the first now i'm denied by the ghost of   you

e |-------0------------------------------0----------------0-----0---0---0---2---
b |-------5------------------------------0----------------0-----0---2---0---0---
g |-------6------------------------------6----------------1-----2---1---1---1---
d |-------6------------------------------7----------------2-----2---2---2---2---
a |-------4------------------------------7----------------2-----2---2---2---2---
E |--------------------------------------5----------------0-----0---0---0---0---
          make yourself a photograph and laugh at me   please

e |-------0------------------------------0----------------0-----0---0---0---2---
b |-------5------------------------------0----------------0-----0---2---0---0---
g |-------6------------------------------6----------------1-----2---1---1---1---
d |-------6------------------------------7----------------2-----2---2---2---2---
a |-------4------------------------------7----------------2-----2---2---2---2---
E |--------------------------------------5----------------0-----0---0---0---0---
      you make yourself a photograph and laugh at me   please

e |---0-------0------------------0---
b |---5-------0------------------0---
g |---6-------6------------------8---
d |---6-------7------------------9---
a |---4-------7------------------9---
E |-------4---5------------------7---
   no i wanna taste of love,  no i...

e |------0----------------------------0------------------------0--
b |------5----------------------------0------------------0-----0--
g |------6----------------------------6------------------6-----1--
d |------6----------------------------7------------------------2--
a |------4----------------------------7------------------------2--
E |-------------------------------4---5------------------7-----0--
   i was alive from the first now i'm denied by the ghost of   you
 
2013, Sep
W

Slow Down

in Australia (2000), Tablature, by jaman
- slow down -
- howie day -

- intro/verse -
   bm        g    bm         g   f#   f# f  e7
e -------0---0--|--------0---0---0--|-0--0--0--|
b -------0---0--|--------0---0---0--|-0--0--0--|
g -------8--/4--|--------8--/4---3--|-3--1--1--|
d -----9----/5--|-----9-----/5---4--|-4--2--0--|
a ---9------/5--|---9-------/5---4--|-4--2--2--|
e -7--------/3--|-7---------/3---2--|-2--1--0--|

- chorus -
    bm   g   d       a    bm*
e --0----3---2(h3)---0--|-2----5--|
b --3----3---3-------2--|-2h3--3--|
g --4----0---2-------2--|-2----2--|
d --4----0---0-------2--|-2h4--4--|
a --2----x---0-------0--|-2----2--|
e -------3--------------|---------|
                          *alternate bm 

transcribed - anthony page - 044287p@acadiau.ca
 
2013, Sep
W

Secret

in Australia (2000), Tablature, by jaman
secret
howie day
australia (2000)
transcribed: anthony g page <044287p@acadiau.ca>
12.19.00 

e |-0-0--0---3-3--3-3--0-0-0-0--0-0--0---3-3--3-3--0-0-0-0--
b |-0-0--1---1-1--1-1--1-0-0-1--0-0--1---1-1--1-1--1-0-0-1--
g |-0-0--2---2-2--0-0--2-2-2-2--0-0--2---2-2--0-0--2-2-2-2--
d |-2-2--3---3-3--0-0--2-2-2-2--2-2--3---3-3--0-0--2-2-2-2--
a |---------------------------------------------------------
E |---------------------------------------------------------

e |-0-0----0------3-3---3-3---------0----0-0---0-----
b |-0-0----1------1-1---1-1---------1----0-0---1-----
g |-0-0----2------2-2---0-0---------2----2-2---2-----
d |-2-2----3------3-3---0-0---------2----2-2---2-----
a |--------------------------------------------------
E |--------------------------------------------------
      it's your secret    why would you tell it to me

e |-0-0----0--------3-3---3-3---------0----0-0---0--
b |-0-0----1--------1-1---1-1---------1----0-0---1--
g |-0-0----2--------2-2---0-0---------2----2-2---2--
d |-2-2----3--------3-3---0-0---------2----2-2---2--
a |-------------------------------------------------
E |-------------------------------------------------
      it's your lover       on the television scream

e |-0-0----0---3-3---3-3-----0----0-0---0---0-0----0---3-3---3-3-----0----0-0---0--
b |-0-0----1---1-1---1-1-----1----0-0---1---0-0----1---1-1---1-1-----1----0-0---1--
g |-0-0----2---2-2---0-0-----2----2-2---2---0-0----2---2-2---0-0-----2----2-2---2--
d |-2-2----3---3-3---0-0-----2----2-2---2---2-2----3---3-3---0-0-----2----2-2---2--
a |--------------------------------------------------------------------------------
E |--------------------------------------------------------------------------------
           why would you not try to be             why would you not want to see

e |-0---0---0----0---3-3--0----0---0---0----0---3--3--3--
b |-0---1---1----1---1-1--1----0---1---1----1---1--1--1--
g |-0---2---0----2---2-2--2----0---2---0----2---2--2--2--
d |-2---3---0----2---2-2--2----2---3---0----2---2--2--2--
a |-2---3---2----0---0-0--0----2---3---2----0---0--0--0--
E |-0-------3------------------0-------3-----------------

e |-0-0------------------0---3-3---3-3-----------------0--0-0---0--
b |-0-0------------------1---1-1---1-1-----------------1--0-0---1--
g |-0-0------------------2---2-2---0-0-----------------2--2-2---2--
d |-2-2------------------3---3-3---0-0-----------------2--2-2---2--
a |----------------------------------------------------------------
E |----------------------------------------------------------------
      it's about your blue hair  i wanna stay all night with you

e |-0-0----------------0--3-3---3-3-------------0----0-0---0--
b |-0-0----------------1--1-1---1-1-------------1----0-0---1--
g |-0-0----------------2--2-2---0-0-------------2----2-2---2--
d |-2-2----------------3--3-3---0-0-------------2----2-2---2--
a |-----------------------------------------------------------
E |-----------------------------------------------------------
    you're the beamiest face    car turns right i'm into you

e |-0------0-----------3-------0--------------0------0-----------3----------0---------
b |-0------1-----------1-------1--------------0------1-----------1----------1---------
g |-0------2-----------0-------2--------------0------2-----------0----------2---------
d |-2------3-----------0-------2--------------2------3-----------0----------2---------
a |-2------3-----------2-------0--------------2------3-----------2----------2---------
E |-0------------------3----------------------0------------------3--------------------
           right from wrong is not quite seen        right from wrong is it everything

e |-0--3----------0--0--0----0--3-----------0--1--0--
b |-1--3----------1--1--1----1--3-----------1--1--1--
g |-0--0----------2--0--2----0--0-----------2--0--2--
d |-2--0----------2--2--3----2--0-----------2--2--3--
a |-3--2----------0-----3----3--2-----------0-----3--
E |----3-------------3----------3--------------3-----
         it's you secret          it's your secret

e |------------0--3----0--0--0--------------0--3-----------0--1--0--
b |------------1--3----1--1--1--------------1--3-----------1--1--1--
g |------------0--0----2--0--2--------------0--0-----------2--0--2--
d |------------2--0----2--2--3--------------2--0-----------2--2--3--
a |------------3--2----0-----3--------------3--2-----------0-----3--
E |---------------3-------3--------------------3--------------3-----
    tell it to me                tell it to me

e |-------------0-0---------0---3-3-------3-3-----------0--0-0---0--
b |-------------0-0---------1---1-1-------1-1-----------1--0-0---1--
g |-------------0-0---------2---2-2-------0-0-----------2--2-2---2--
d |-------------2-2---------3---3-3-------0-0-----------2--2-2---2--
a |-----------------------------------------------------------------
E |-----------------------------------------------------------------
    don't wanna step on the cracks    the feeling is we didn't

e |-------------0-0------0--3-3---3-3-------------0----0-0---0--
b |-------------0-0------1--1-1---1-1-------------1----0-0---1--
g |-------------0-0------2--2-2---0-0-------------2----2-2---2--
d |-------------2-2------3--3-3---0-0-------------2----2-2---2--
a |-------------------------------------------------------------
E |-------------------------------------------------------------
    you got the beamiest face     car turns left i'm into you

e |-0------0---------3---0--------------0------0-----------3-----0----------
b |-0------1---------1---1--------------0------1-----------1-----1----------
g |-0------2---------0---2--------------0------2-----------0-----2----------
d |-2------3---------0---2--------------2------3-----------0-----2----------
a |-2------3---------2---0--------------2------3-----------2-----2----------
E |-0----------------3------------------0------------------3----------------
           taking sleepy pills for rest   your anxious love gets so obsessed

e |-0--3----------0--0--0----0--3-----------0--1--0--
b |-1--3----------1--1--1----1--3-----------1--1--1--
g |-0--0----------2--0--2----0--0-----------2--0--2--
d |-2--0----------2--2--3----2--0-----------2--2--3--
a |-3--2----------0-----3----3--2-----------0-----3--
E |----3-------------3----------3--------------3-----
         it's you secret          it's your secret

e |------------0--3----0--0--0--------------0--3-----------0--1--0--
b |------------1--3----1--1--1--------------1--3-----------1--1--1--
g |------------0--0----2--0--2--------------0--0-----------2--0--2--
d |------------2--0----2--2--3--------------2--0-----------2--2--3--
a |------------3--2----0-----3--------------3--2-----------0-----3--
E |---------------3-------3--------------------3--------------3-----
    tell it to me                tell it to me

e |---------------------------------------------------------
b |-0-0--1---1-1--1-1--1-0-0-1--0-0--1---1-1--1-1--1-0-0-1--
g |-0-0--2---2-2--0-0--2-2-2-2--0-0--2---2-2--0-0--2-2-2-2--
d |-2-2--3---3-3--0-0--2-2-2-2--2-2--3---3-3--0-0--2-2-2-2--
a |---------------------------------------------------------
E |---------------------------------------------------------

e |---------------------------------------------------------
b |-0-0--1---1-1--1-1--1-0-0-1--0-0--1---1-1--1-1--1-0-0-1--
g |-0-0--2---2-2--0-0--2-2-2-2--0-0--2---2-2--0-0--2-2-2-2--
d |-2-2--3---3-3--0-0--2-2-2-2--2-2--3---3-3--0-0--2-2-2-2--
a |---------------------------------------------------------
E |---------------------------------------------------------

e |-----------0-0----0--3-3------3-3----------0----0-0---0--
b |-----------0-0----1--1-1------1-1----------1----0-0---1--
g |-----------0-0----2--2-2------0-0----------2----2-2---2--
d |-----------2-2----3--3-3------0-0----------2----2-2---2--
a |---------------------------------------------------------
E |---------------------------------------------------------
    it's your love affair   on a quiet sunday afternoon

e |----------0-0----0--3-3------3-3-------------0----0-0---0--
b |----------0-0----1--1-1------1-1-------------1----0-0---1--
g |----------0-0----2--2-2------0-0-------------2----2-2---2--
d |----------2-2----3--3-3------0-0-------------2----2-2---2--
a |-----------------------------------------------------------
E |-----------------------------------------------------------
    and your speedy pills       you should know i'm into you

e |-0------0------------3----0--------------0------0---------3-------0----------
b |-0------1------------1----1--------------0------1---------1-------1----------
g |-0------2------------0----2--------------0------2---------0-------2----------
d |-2------3------------0----2--------------2------3---------0-------2----------
a |-2------3------------2----0--------------2------3---------2-------2----------
E |-0-------------------3-------------------0----------------3------------------
           why would you not try to be             why would you not want to see

e |-0--3----------0--0--0----0--3-----------0--1--0--
b |-1--3----------1--1--1----1--3-----------1--1--1--
g |-0--0----------2--0--2----0--0-----------2--0--2--
d |-2--0----------2--2--3----2--0-----------2--2--3--
a |-3--2----------0-----3----3--2-----------0-----3--
E |----3-------------3----------3--------------3-----
         it's you secret          it's your secret

e |------------0--3----0--0--0--------------0--3-----------0--1--0--
b |------------1--3----1--1--1--------------1--3-----------1--1--1--
g |------------0--0----2--0--2--------------0--0-----------2--0--2--
d |------------2--0----2--2--3--------------2--0-----------2--2--3--
a |------------3--2----0-----3--------------3--2-----------0-----3--
E |---------------3-------3--------------------3--------------3-----
    tell it to me                tell it to me...
 
2013, Sep
W

She Says

in Australia (2000), Tablature, by jaman
- she says -
- howie day -

- verse -
   c             c                        am
e -0--0--3--0--|-0--0--3--0---0--0--3--0--3--3--|
b -3--1--0--1--|-3--1--0--1---3--1--0--1--1--0--|
g -0--0--0--0--|-0--0--0--0---0--0--0--0--0--0--|
d -2--2--2--2--|-2--2--2--2---2--2--2--2--2--2--|
a -3--3--3--3--|-3--3--3--3---3--3--3--3--0--0--|
e -------------|--------------------------------|
		* alternate version

- pre chorus -

   f  g  c     am
e -3--3--0--0--0--|
b -1--0--1--1--1--|
g -2--0--0--0--2--|
d -3--0--2--0--2--|
a ----2--3--2--0--|
e ----3-----------|

- chorus -

   f  g  am c    em f
e -1--3--0--0--|-0--1--|
b -1--3--1--1--|-0--1--|
g -2--0--2--0--|-0--2--|
d -3--0--2--2--|-2--3--|
a -3--x--0--3--|-2--3--|
e -1--3--------|-0--1--|

- outro -

   em f  g  am 
e -0--1--3--0--|-0--1--0--|
b -0--1--3--1--|-0--1--0--|
g -0--2--0--2--|-0--2--0--|
d -2--3--0--2--|-2--3--2--|
a -2--3--x--o--|-2--3--3--|
e -0--1--3-----|-0--1-----|

transcribed - anthony page - 044287p@acadiau.ca
 
2013, Sep
W

Sorry, So Sorry

in Australia (2000), Tablature, by jaman
sorry, so sorry
howie day
australia (2000)
transcribed: anthony g page <044287p@acadiau.ca>
11.11.00

capo on 1st fret, all notes are relative.

e |-----------0------------------0------------2---
b |-----------0------------------0------------0---
g |-----------0------------------0------------0---
d |-----------2------------------2------------2---
a |-----------3------------------2------------2---
E |------------------------------0------------0---
   spend your nights here, we'll always be up late

e |---------0-------0------2--------------------
b |---------0-------3------0--------------------
g |---------0-------0------0--------------------
d |---------2-------2------2--------------------
a |---------3-------3------2--------------------
E |------------------------0--------------------
   keep eachother on, chemicals can make us stay

e |---------------0-------0-------------0-------------------2-----
b |---------------0-------3-------------0-------------------0-----
g |---------------0-------0-------------0-------------------0-----
d |---------------2-------2-------------2-------------------2-----
a |---------------3-------3-------------2-------------------2-----
E |-------------------------------------0-------------------0-----
   i meant you're outta line, with your friends and all your jokes

e |-------0-------0----0------0------------2----------0--
b |-------0-------3----0------0------------0----------3--
g |-------0-------0----0------0------------0----------2--
d |-------2-------2----2------2------------2----------0--
a |-------3-------3----3------2-----------------------0--
E |---------------------------0--------------------------
    movin out tonight, making phones that hot to hold

e |---------0----3-----0------0-----------0----------0------0-
b |---------1----1-----1p0----3-----------1----------1p0----3-
g |---------2----2-----2------2-----------2----------2------2-
d |---------2----2-----2------0-----------2----------2------0-
a |---------0----0-----0------0-----------0----------0------0-
E |-----------------------------------------------------------
    and you really didn't   know, and you really didn't   know

band intro

e |-----------0--------------0------------2---
b |-----------0--------------0------------0---
g |-----------0--------------0------------0---
d |-----------2--------------2------------2---
a |-----------3--------------2------------2---
E |--------------------------0------------0---
   spend your days here, and never give up now

e |-------------0-----------0---------2---------------------
b |-------------0-----------3---------0---------------------
g |-------------0-----------0---------0---------------------
d |-------------2-----------2---------2---------------------
a |-------------3-----------3---------2---------------------
E |-----------------------------------0---------------------
   you keep the children down, you're down for one more hour

e |--------0-----------0---------0---------------2---------
b |--------0-----------3---------0---------------0---------
g |--------0-----------0---------0---------------0---------
d |--------2-----------2---------2---------------2---------
a |--------3-----------3---------2---------------2---------
E |------------------------------0---------------0---------
   imagine i would feel, if your friends were all your date

e |-------0--------------------0----------------2---0-
b |-------0--------------------0----------------0---3-
g |-------0--------------------0----------------0---2-
d |-------2--------------------2----------------2---0-
a |-------3--------------------2----------------2---0-
E |----------------------------0----------------0-----
   moving out with her, do you shake, you'll be ok

e |---------0----3-----0------0-------------0----------0------0-
b |---------1----1-----1p0----3-------------1----------1p0----3-
g |---------2----2-----2------2-------------2----------2------2-
d |---------2----2-----2------0-------------2----------2------0-
a |---------0----0-----0------0-------------0----------0------0-
E |-------------------------------------------------------------
    and you really didn't   know, i swear i really didn't   know

e |---------0----------0---------0---------2-
b |---------0----------0---------1---------3-
g |---------0----------6---------0---------2-
d |---------2----------7---------2---------0-
a |---------2----------7---------3---------0-
E |---------0--------------------------------
    so i'm sorry, so sorry, i'm sorry, oh no

e |---------0----------0---------0---------2-
b |---------0----------0---------1---------3-
g |---------0----------6---------0---------2-
d |---------2----------7---------2---------0-
a |---------2----------7---------3---------0-
E |---------0--------------------------------
   and i'm sorry, so sorry, i'm sorry,  oh

e |-----------0------------------0------------2---
b |-----------0------------------0------------0---
g |-----------0------------------0------------0---
d |-----------2------------------2------------2---
a |-----------3------------------2------------2---
E |------------------------------0------------0---
   spend your nights here, we'll always be up late

e |---------0-------0------2--------------------
b |---------0-------3------0--------------------
g |---------0-------0------0--------------------
d |---------2-------2------2--------------------
a |---------3-------3------2--------------------
E |------------------------0--------------------
   keep eachother on, chemicals can make us stay

e |---------------0-------0-------------0-------------------2-----
b |---------------0-------3-------------0-------------------0-----
g |---------------0-------0-------------0-------------------0-----
d |---------------2-------2-------------2-------------------2-----
a |---------------3-------3-------------2-------------------2-----
E |-------------------------------------0-------------------0-----
   i meant you're outta line, with your friends and all your jokes

e |-------0-------0----0------0------------2----------0--
b |-------0-------3----0------0------------0----------3--
g |-------0-------0----0------0------------0----------2--
d |-------2-------2----2------2------------2----------0--
a |-------3-------3----3------2-----------------------0--
E |---------------------------0--------------------------
   moving out tonight, making phones that hot to hold

e |---------0----3-----0------0-------------0----------0------0-
b |---------1----1-----1p0----3-------------1----------1p0----3-
g |---------2----2-----2------2-------------2----------2------2-
d |---------2----2-----2------0-------------2----------2------0-
a |---------0----0-----0------0-------------0----------0------0-
E |-------------------------------------------------------------
    and you really didn't   know, i swear i really didn't   know

e |---------0----------0---------0---------2-
b |---------0----------0---------1---------3-
g |---------0----------6---------0---------2-
d |---------2----------7---------2---------0-
a |---------2----------7---------3---------0-
E |---------0--------------------------------
    so i'm sorry, so sorry, i'm sorry, oh no

e |---------0----------0---------0---------2-
b |---------0----------0---------1---------3-
g |---------0----------6---------0---------2-
d |---------2----------7---------2---------0-
a |---------2----------7---------3---------0-
E |---------0--------------------------------
   and i'm sorry, so sorry, i'm sorry,  oh

e |---------0----3-----0------0-------------0----------0------0-
b |---------1----1-----1p0----3-------------1----------1p0----3-
g |---------2----2-----2------2-------------2----------2------2-
d |---------2----2-----2------0-------------2----------2------0-
a |---------0----0-----0------0-------------0----------0------0-
E |-------------------------------------------------------------
    get me outta here, oh no,     i swear i really didn't   know

e |---------0----------0---------0---------2------
b |---------0----------0---------1---------3------
g |---------0----------6---------0---------2------
d |---------2----------7---------2---------0------
a |---------2----------7---------3---------0------
E |---------0-------------------------------------
   and i'm sorry, so sorry, i'm sorry, so sorry...