2013, Sep
W

Girl Next Door

girl next door
by howie day
tabbed by jason fobart 1/2001
edited by mike ingram -  nakedguy69@hotmail.com

standard tuning, no capo

chords:

howie might use different structures, but these are close enough to pull the
song off. He sometimes uses a full C (332010) in the choruses, etc.

   D2  D  A  Aadd3  G   D3  Bm  C  Am7  Em7
E  3   2  0    0    3   5   2   3   3    3
A  3   3  2    3    3   7   3   3   3    3
D  2   2  2    2    0   7   4   0   2    0
G  0   0  2    2    0   7   4   2   2    2
B  X   X  0    0    2   5   2   3   0    2
E  X   X  X    X    3   5   2   X   X    0

intro:
D2 D A Aadd3 G  (repeat 3x)

verses:

e--2h3--0---0---0---3-----(7)--
B---3---3--2h3--2---3-----(7)--
G---2---2---2---2---0-----(7)--
D---0---0---2---2---0------x---
A--(0)-(0)--0---0---2------x---
E---x---x---x---x---3------x--- 

D2 D A Aadd3 G
followed by
D3 A Aadd3 G

chorus:
D Bm C G

bridge/outro:
Em7 Am7 Em7 Am7 Em7 Am7 C Am7 G
 
2013, Sep
W

Buzzing

- buzzing: album version -
- howie day -

- intro/verse -
    em                        c   c7    em  d#7  d5          am7   c  d
e --7----7---10--7---7----7---3---0--|--7-----------0h2--2---0-----0--2--|
b --7h8--8---8---8---7----8---5---1--|--8---7----7--1----1---1-----1--3--|
g --7----7---7---7---7----7---5---3--|--7---6----7--0h2--2---0-----0--2--|
d --7h9--9---9---9---9----9---5---2--|--9---8----7--0----0---2-----2--0--|
a --7----7---7---7---7----7---3---3--|--7---6----5--0----0---0-----3--0--|
e -(0)--(0)-(0)-(0)-(0)--(0)---------|-(0)-------------------------------|
you can also play the chords em - c for verse when vocals come in

- chorus -
   c  g       em  d
e -3--3-------3---2--|
b -3--3-------3---3--|
g -0--0-------0---2--|
d -2--0-------2---0--|
a -3--x-------2---0--|
e ----3--(2)--0------|

original transcription - anthony page - 044287p@acadiau.ca

**********************************************************************************

- buzzing: live version -
- howie day -
- there were a few minor chord changes in the live performance since the ep -

- intro/verse -
    em                        c   c    em  d#7  d5     am7   c  d
e --7----7---10--7---7----7---3---0-|--7---------------0-----0--2--|
b --7h8--8---8---8---7----8---5---1-|--8---7----7------1-----1--3--|
g --7----7---7---7---7----7---5---3-|--7---6----7------0-----0--2--|
d --7h9--9---9---9---9----9---5---2-|--9---8----7------2-----2--0--|
a --7----7---7---7---7----7---3---3-|--7---6----5------0-----3--0--|
e -(0)--(0)-(0)-(0)-(0)--(0)--------|-(0)--------------------------|

- chorus -
   c  g       em  d
e -3--3-------3---2--|
b -3--3-------3---3--|
g -0--0-------0---2--|
d -2--0-------2---0--|
a -3--x-------2---0--|
e ----3--(2)--0------|

transcribed - anthony page - 044287p@acadiau.ca
edited by - mike ingram - nakedguy69@hotmail.com