2013, Sep
W

Fear

in Live Covers, Tablature, by jaman
Fear

Verse 1
D G
I pray for my child, for her mother
For what u ppl wanna do to one another
for the water, for the trees
man I'm scared of pollution, of disease

D A
And I'm scared that my child won't live a long time
G F#m
with your murder your rape and your drug moneys crime
Em F#m 
scared of the drugs stealing youth from the young 
G A
another life story, that'll never be sung

Chorus:

D A G F#m 
And I pray my child lives happy and long
Em F#m G A 
and I hope she never sings this song
D A G F#m 
And I pray my child lives happy and long
Em F#m G A 
and I hope she never sings this song

it's the same structure for the second verse
if you need the words, check out paddycasey.com
you should be able to find it off of that

this is from memory, so listen to the music to get the timing  

--Ian
 
2013, Sep
W

Babylon

in Live Covers, Tablature, by jaman
- babylon [david gray] -
- howie day -

sexual clamp....i mean capo on 1st. 
realtive to capo.

- verse -
   c                f                 em
e -0-0--0-----------0-0--0----------|-0---2--0-|
b -0-0--0h1p0-------1-1--0h1p0------|-0---0--0-|
g -0-0--0-----0-----2-2--2------2---|-0---0--0-|
d -2-2--2-------2---3-3--3--------3-|-2---2--2-|
a -3-3--3---------------------------|-2---2--2-|
e ----------------------------------|-0---0--0-|
  "friday night..."

- chorus -
   c     g  em f        c     g  am g
e -0--0--3--0--1--0---|-0--0--3--0--3--|
b -1--3--3--0--1--0---|-1--3--3--1--3--|
g -0--0--0--0--2--2---|-0--0--0--2--0--|
d -2--2--0--2--3--3---|-2--2--0--2--0--|
a -3--3--x--2--3------|-3--3--x--0--x--|
e -------3--0--1------|-------3-----3--|
  "if you want it..."   "let go of your heart..."

transcribed - anthony page - 044287p@acadiau.ca
 
2013, Sep
W

At the Stars

in Live Covers, Tablature, by jaman
at the stars (better than ezra)
howie day
transcribed by brendan o'rourke (daivmatthewsband@yahoo.com)

verse
   A   E       F#m  A   B
e--0---0-----|--2---5---7---
b--2---0-----|--2---5---7---
g--2---1h2---|--2---6---8---
d--2---2-----|--4---7---9---
a--0---2-----|--4---7---9---
E------0-----|--2---5---7---

chorus
   A   E  F#m          A   E   F#m   A   B
e--0---0---2---2/4--|--0---0----2----5---7--- 
b--2---0---2---2/4--|--2---0----2----5---7---
g--2---1---2---2/4--|--2---1----4----6---8---
d--2---2---4---4/6--|--2---2----4----7---9---
a--0---2---4---4/6--|--0---2----2----7---9---
E------0---2---2/4--|------0----2----5---7---

bridge
   D   A   E      F#m  A   B
e--0---0---0----|--2---5---7----
b--3---2---0----|--2---5---7----
g--2---2---1h2--|--2---6---8----
d--0---2---2----|--4---7---9----
a------0---2----|--4---7---9----
E----------0----|--2---5---7----
 
2013, Sep
W

Africa

in Live Covers, Tablature, by jaman
africa [toto]
howie day
based on 03.18.01 zigs bar
transcribed: anthony g page <044287p@acadiau.ca>
03.27.01

verse/intro
    G            Bm               A  C#m F#m  A   G   Bm F#m   G            Bm
e |-3-3-3-3---2--2----2--0-0-0--|-0---4---2---5---3---0---2----3-3-3-3---2--2----2--0-0-0--|
b |-3-3-3-3---2--2h3--3--3-3-3--|-2---3---2---5---3---3---2----3-3-3-3---2--2h3--3--3-3-3--|
g |-4-4-4-4---2--2h4--4--4-4-4--|-2---6---2---6---0---4---2----4-4-4-4---2--2h4--4--4-4-4--|
d |-5-5-5-5---2--2h4--4--4-4-4--|-2---6---4---7---0---4---4----5-5-5-5---2--2h4--4--4-4-4--|
a |-5-5-5-5------2----2--2-2-2--|-0---4---4---7---2---2---4----5-5-5-5------2----2--2-2-2--|
E |-3-3-3-3---------------------|---------2---5---3-------2----3-3-3-3---------------------|
                                 "i hear the drums..."

into chorus/chorus
    A  C#m F#m  A   G   Bm    Em  C   G   D     Em C  G  D  Bm Em
e |-0---4---2---0---3---0--|--0---0---3---2--|--0--0--3--2--0--0-----|
b |-2---3---2---2---3---3--|--0---0---3---3--|--0--0--3--3--3--0-----|
g |-2---6---2---2---0---4--|--0---0---0---0--|--0--0--0--0--4--0-----|
d |-2---6---4---2---0---4--|--2---2---0---0--|--2--2--0--0--4--2-----|
a |-0---4---4---0---2---2--|--2---3---2---0--|--2--3--2--0--2--2-----|
E |---------2-------3------|--0-------3------|--0-----3--------0--2--|
   "hurry boy..."                              "it's gonna take some time..."
 
2013, Sep
W

#41

in Live Covers, Tablature, by jaman
#41 [dmb]
howie day
transcribed: jack pelletier

the only difference between the dave version of this song and the howie
day version is the way that hosie voices the chords, particularly the 
Em7 chord
            dave's pattern  
          c5/a                         
chords  e--3----2----0----0-----0-----------------
	b--3----3----3----3-----3------------------
        g--5----2----0----0-or--2------------------
	d--5----4----2----4-----0------------------
	a-------2----2----5-----0------------------
	e------------0-------------------------

daves version-intro(howie usually does not include this, but it sounds
	really nice if you play it)
e---0----------------------------------------------------------------
b---0-------3-------3----------3-------3--------3------3-------------
g---5-----2---2----2-2-------2---2----2-2-----0---0---0-0------------
d---5---------------------------------------4-------4----------------
a-------2-------2------2--------------------5-------5----------------
E-------------------------0---------0--------------------------------

this is howies chord progression for the verse...he plays slight
variations of this through out the song...but this is generally the 
idea
          c5/a        bm7           em7            d6
e----3-3-3-3-3-3-3--2---2-5-5-2---7---7-10-10-7---0-0-5-5-0-
b----3-3-3-3-3-3-3--2h3-3-3-3-3---7h8-8-8--8--8---3-3-3-3-5-
g----5-5-5-5-5-5-5--2---2-2-2-2---7---7-7--7--7---0-0-0-0-0-
d----5-5-5-5-5-5-5--4---4-4-4-4---7h9-9-9--9--9---4-4-4-4-4-
a--0----------------2---2-----2---7---7-7--7--7---5-5-5-5-5-
E-----------------------------------------------------------

these are the chords for the chorus...listen for the rhythm
   g     d    cm?
e--3-----2----0-------------------------------------------------------
b--3-----3----0------------------------------------------------------
g--0-----2----0------------------------------------------------------
d--0-----0----2------------------------------------------------------
a--2----------3------------------------------------------------------
E--3----------------------------------------------------------------

the solo!- basically this improvisation on what dave plays during the 
sax solos in the real song.  howie plays the basic chord progression 
but, again uses different chord voicings. 
 here aree the chords..the rhythm is not there but..jsut listem to the part
and you should be able to get it. use alot of muting.
e--2-/-3-5--------7--------7---10-7-6-5-------------
b--2-/-3-5--------7--------7h8-8--8-7-7-------------
g--4-/-5-5-strum--7--strum-7---7--7-6-5-strum-------
d--4-/-5-5--------9--------7h9-9--9-8-7-------------
a---------------------------------------------------
E---------------------------------------------------

e--5-5-5-5--5-5-5-5-6-6/7-7-7-7--7-7-7-7--7--------7-6-5---------
b--5-5-5-5--5-5-5-5-6-6-7-7-7-7--7-7-7-7--8--------8-7-7---------
g--5-5-5-5--5-5-5-5-6-6-7-7-7-7--7-7-7-7--7-strum--7-6-5---strum-
d--5-5-5-5--5-5-5-5-----------------------9--------9-8-7---------
a----------------------------------------------------------------
E----------------------------------------------------------------
you get the idea...just use lots of muting and do a little improv!

outro of solo-goes back into chorus
e--2/(3)-3-3-5-5---2---2-5-5-2----7---7-10-10-7---0-0-5-5-0--
b--2/(3)-3-5-5-5---2h3-3-3-3-2h3--7h8-8-8--8--8---3-3-3-3-5--
g--4/(5)-5-5-5-5---2---2-2-2-2----7---7-7--7--7---0-0-0-0-0--
d--4/(5)-5-5-5-5---4---4-4-4-4----7h9-9-9--9--9---4-4-4-4-4--
a------------------2---2-----2----7---7-7--7--7---5-5-5-5-5--
E------------------------------------------------------------