2013, Sep
W

Annalise

in Live Originals, Tablature, by jaman
Annalise - Howie Day
tab by Mike Ingram - nakedguy69@hotmail.com

Capo 1st

Verse

e---2---0---3---2--------
B---3---0---0---3--------
G---2---1---0---2--(0h2)-
D---0---2---0---0--------
A--(0)--2---2--(0)-------
E---x---0---3---x--------

Pre-chorus

e---3---2---0-(2)-
B---3---3---3-----
G---0---2---0-----
D---0---0---2-----
A---2---x---2-----
E---3---2---0-----

Chorus

e---0---3---
B---1---0---
G---0---0---
D---2---0---
A---3---2---
E---x---3---

After first chorus (this part could just be Howie forgetting what he was doing)

e---2---3---
B---3---0---
G---2---0---
D---0---0--- (x2)
A--(0)--2---
E---x---3---

Outro

e---2---0---x---0---
B---3---0---3---1---
G---2---1---3---0---
D---0---2---3---2---
A--(0)--2---1---3---
E---x---0---x---x---

well I could ask anyone about you
and they'll tell me all a lie, sweet lie, sweet lie
you could celebrate with all your fine jewelry
no one ever sees the grace, the happiness

and i hope it's not true
'cause i feel so close to you
annalise, asking
when you get home

we were three thousand miles away 
above too (?)
fascinating all of them (?)
nothing could get me through to you

god i hope it's not true
'cause i feel so close to you
annalise...asking
when you get home
will you come home with me

and i hope it's not you
'cause i feel so close to you
annalise...asking
when you get home
will you come home with me
 
2013, Sep
W

After You (outro jam)

in Live Originals, Tablature, by jaman
after you jam
howie day
transcribed by brendan o'rourke (daivmatthewsband@yahoo.com)
***************************************************************************

this follows an Em D progression, with the D coming in on an odd beat so listen for it
just play some barres and such whatever.

e-(7)---(5)----10/12-----------   this is the theme that should already be repeating.
b-(7)---(5)--------------------   parentheses indicates harmonics.
g-(7)---(5)--------------------
d-(7)---(5)--------------------
a------------------------------
E------------------------------

e-0--2--3--5--7--8--10--12-----
b------------------------------
g------------------------------
d------------------------------
a------------------------------
E------------------------------

e-0--2--3--5--7--8-------------   start this part on the third beat...
b------------------------------   or you could say the 2 of the above
g------------------------------   theme
d------------------------------
a------------------------------
E------------------------------

e------------------------------   bassline...i dont really indicate the number of 
b------------------------------   times each note is struck, but this should give 
g------------------------------   you the idea.
d------------------------------
a------------------------------
E-12--12--10--7/10--7/10--11---
 
2013, Sep
W

After You

in Live Originals, Tablature, by jaman
howie day
after you
tabbed by brendan o'rourke
edited by nolan van wert (10.21.02)
(05.26.01) fixed (07.30.01)

begin with strumming the muted strings 
optional: add drum beats to compliment the first loop

insert any (or all) of these fills over the percussion:

fill 1 		         fill 2 
-12-10- or-12--10h12p10- --2h3p2
-------   -------------- -------
-------   -------------- -------
-------   -------------- -------
-------   -------------- -------
-------   -------------- -------

fill 3
-0--(12)---  play the harmonic on the 12th fret
----(12)---  
----(12)---
----(12)---  
----(12)---
----(12)--- 

intro/verse
      Em              D   			
-0---2---0---2---0---2---0---2-
-0---0---0---0---3---3---3---3-	
-0---0---0---0---2---2---2---2-
-2---2---2---2---0---0---0---0-
-2---2---2---2-----------------
-0---0---0---0-----------------

chorus
----
"We are walking after you..."		
C   Em	 D	     		
-3---3---0---2---0---2- 
-3--(3)--3---3---3---3-
-0---0---2---2---2---2-
-2---2---0---0---0---0-
-3---2-----------------
-----0-----------------

transition
Bb   C   G     G
-1---3---3-|--10-- 
-3---5---3-|--12--
-3---5---4-|--12--
-3---5---5-|--12--
-1---3---5-|--10--
---------3-|------

bridge

"I am stronger anyway..."
Bb   C   D   Bb  C   G
-1---0---2---1---3---3-
-3---1---3---3---5---3-
-3---0---2---3---5---0-
-3---2---0---3---5---0-
-1---3-------1---3---2-
---------------------3-

"We both know it can be like this..."
Em  D/F# C    			
-3---2---3-----	
-3---3---3-----	
-0---2---0-----	
-2---0---2-----
-2---x---3-----	
-0---2---------