2013, Sep
W

You and A Promise

You and A Promise - Howie Day
tab my Mike Ingram - nakedguy69@hotmail.com

Capo at 1st fret - live it's been without a capo

Intro

e---1---0---1---0--(1)-(0)--
B---3---3---3---3--(1)--2---
G---2---0---2---0---2---2---
D---0---0---0---0---3---2---
A--(0)--2--(0)--2---3---0---
E---x---3---x---3---1---x---

Picking over Intro

e----------0------------0-1p0--------
B--------3---3--------3-------3------
G------2------------2----------------
D--(0)----------(0)-------------(x3)-
A------------------------------------
E------------------------------------

Verse

e---1---0---0---3---|---1---0---0---
B---3---1---1---0---|---3---1---1---
G---2---2---0---0---|---2---2---0---
D---0---3---2---0---|---0---3---2---
A--(0)--x---3---2---|--(0)--x---3---
E---x---x---x---3---|---x---x---x---

Pre-chorus - ("she met him...")

e---x--(1)--0---3---|---x--(1)-(1)--
B---3--(1)--1---0---|---3--(1)-(1)--
G---3---2---0---0---|---3---2---2---
D---3---3---2---0---|---3---3---3---
A---1---3---3---2---|---1---3---3---
E---x---1---x---3---|---x---1---0---

Chorus

e---1---0---1---0--(1)-(0)--
B---3---3---3---3--(1)--2---
G---2---0---2---0---2---2---
D---0---0---0---0---3---2---
A--(0)--2--(0)--2---3---0---
E---x---3---x---3---1---x---

Bridge - ("and they say...")

e---x---1---0--------3---
B---3---1---1--------0---
G---3---2---0--------0---
D---3---3---2--(x3)--0---
A---1---3---3--------2---
E---x---1---x--------3---

Outro

e---1---0---
B---3---3---
G---2---0---
D---0---0---
A--(0)--2---
E---x---3---
 
2013, Sep
W

Madrigals

madrigals
howie day
transcribed: anthony g page [agp@hdaee.net]
05.01.01

intro/verse

    E              Bm  A   E                C#m  A   E  F#m  A
e |-0--0--0--2--|--0---0---0---0---0---2--|--0---0---0---2---0----------
b |-0--0--0--0--|--3---0---0---0---0---0--|--5---0---0---2---2----------
g |-1--2--1--1--|--4---6---1---2---1---1--|--6---6---1---2---2----------
d |-2--2--2--2--|--4---7---2---2---2---2--|--6---7---2---4---2----------
a |-2--2--2--2--|--2---7---2---2---2---2--|--4---7---2---4---0----------
E |-0--0--0--0--|------5---0---0---0---0--|------5---0---2--------------
                 "i'm not so sure..."       "i'm alright i'm sending..."

chorus

    E   B  F#m  A
e |-0---0---2---0--------
b |-0---0---2---0--------
g |-1---8---2---6--------
d |-2---9---4---7--------
a |-2---9---4---7--------
E |-0---7---2---5--------
   "you told everyone..."

THE part

   C#m  B   Bm  A    C#m  B   Bm  A    F#m  A
e |-0---0---0---0---|-0---0---0---0-----2---0---
b |-5---0---3---0---|-5---0---3---0-----2---2---
g |-6---8---4---6---|-6---8---4---6-----2---2---
d |-6---9---4---7---|-6---9---4---7-----4---2---
a |-4---9---2---7---|-4---9---2---7-----4---0---
E |-----7-------5---|-----7-------5--4--2-------
                     * last time through

lyrics

i'm not so sure what i was dreaming
about but i'm sure it was better
than this and i'll hope you suppose
that i'm alright i'm buying you flowers

you told everyone, they know everything
and your madrigals and your silver rings
i still see a flash
from the time i opened my eyes too wide

i couldn't have asked you to stay
i'm already falling to pieces
from this and i'll hope you suppose
that i'm alright i'm sending you flowers

you told everyone, they know everything
and your madrigals and your silver rings
i still see a flash
from the time i opened my eyes too wide