2013, Sep
W

End of Our Days

End of Our Days - Howie Day
tab by Mike Ingram - nakedguy69@hotmail.com

obviously this song is played on the piano, but this is a pretty close translation to guitar

Intro

e-----------------------------------------------
B-----------------------------------------------
G---7--7--7--7-----(6)------------7--7--7--7----
D---7--7--7--6-7----7--7--7--6-7--7--7--7--6-7--
A---5--5--5--5------7--7--7--7----5--5--5--5----
E-------------------5--5--5--5------------------

Verse
                   (*)
e--------------(0)----------
B--------------(0)----------
G--(6)------2---1---1-------
D---7---6---4---2---2-(6)---
A---7---7---4---2---2-(7)---
E---5---4---2---0---4-(4)---

* - touches on it walking back up to the A chord - either shape works

Pre-chorus ("I know...")

e--(0)--0---0---
B---3---2---0---
G---4---2---1---
D---4---2---2---
A---2---0---2---
E---x---x---0---

Chorus

e---0---0---0--|---0---0---2---0--|--(0)--0---0---0--|--(0)--0---0---
B---3---2---0--|---3---2---2---0--|---3---3---2---0--|---3---2---0---
G---2---2---1--|---2---2---2---1--|---4---2---2---1--|---4---2---1---
D---0---2---2--|---0---2---4---2--|---4---0---2---2--|---4---2---2---
A--(0)--0---2--|--(0)--0---4---2--|---2--(0)--0---2--|---2---0---2---
E---x---x---0--|---x---x---2---0--|---x---x---x---0--|---x---x---0---

Breakdown

e------------------------------------------------0---0---
B------------------------------------------------3---3---
G-----------7--6---------------------------------2---2---
D---4---6--(7)-7-----7----7---7----------4---6---0--(0)--
A---4---7---7--7---4/5\4------7---(x3)---4---7--(0)--4---
E---2---4---5--5----------7---5----------2---4---x---x---

Ending

e---------------
B---------------
G--(2)-----(6)--
D---4---6---7---
A---4---7---7---
E---2---4---5---
 
2013, Sep
W

You and A Promise

You and A Promise - Howie Day
tab my Mike Ingram - nakedguy69@hotmail.com

Capo at 1st fret - live it's been without a capo

Intro

e---1---0---1---0--(1)-(0)--
B---3---3---3---3--(1)--2---
G---2---0---2---0---2---2---
D---0---0---0---0---3---2---
A--(0)--2--(0)--2---3---0---
E---x---3---x---3---1---x---

Picking over Intro

e----------0------------0-1p0--------
B--------3---3--------3-------3------
G------2------------2----------------
D--(0)----------(0)-------------(x3)-
A------------------------------------
E------------------------------------

Verse

e---1---0---0---3---|---1---0---0---
B---3---1---1---0---|---3---1---1---
G---2---2---0---0---|---2---2---0---
D---0---3---2---0---|---0---3---2---
A--(0)--x---3---2---|--(0)--x---3---
E---x---x---x---3---|---x---x---x---

Pre-chorus - ("she met him...")

e---x--(1)--0---3---|---x--(1)-(1)--
B---3--(1)--1---0---|---3--(1)-(1)--
G---3---2---0---0---|---3---2---2---
D---3---3---2---0---|---3---3---3---
A---1---3---3---2---|---1---3---3---
E---x---1---x---3---|---x---1---0---

Chorus

e---1---0---1---0--(1)-(0)--
B---3---3---3---3--(1)--2---
G---2---0---2---0---2---2---
D---0---0---0---0---3---2---
A--(0)--2--(0)--2---3---0---
E---x---3---x---3---1---x---

Bridge - ("and they say...")

e---x---1---0--------3---
B---3---1---1--------0---
G---3---2---0--------0---
D---3---3---2--(x3)--0---
A---1---3---3--------2---
E---x---1---x--------3---

Outro

e---1---0---
B---3---3---
G---2---0---
D---0---0---
A--(0)--2---
E---x---3---
 
2013, Sep
W

Numbness For Sound

Numbness For Sound - Howie Day
tab by Mike Ingram - nakedguy69@hotmail.com

Capo 2nd fret - all tab relative to the capo

Intro/Verse

e---1--0--1---0---0----0-----|---1--0--1---0---0---3---
B---3--3--3---1--1(h3)-1(p0)-|---3--3--3---1---1---3---
G---2--2--2---2---0----0-----|---2--2--2---2---0---0---
D---0--0--0---3---2----0-----|---0--0--0---3---2---0---
A--(0)-x--x--(0)--3----2-----|--(0)-x--x--(0)--0---2---
E---x--x--x---x---x---(3)----|---x--x--x---x---x---3---

Pre-chorus/Chorus
                                           (*)
e--0(3)-0---0---0---3---0---|---0---0---0---3---0---
B---1---1---0---1---3---1---|---1---0---1---3---1---
G---2---0---0---2---0---2---|---0---0---2---0---2---
D---3---2---2---2---0---3---|---2---2---2---0---3---
A---x---0---2---0---2---x---|---3---2---0---2---x---
E---x---x---0---x---3---x---|---x---0---x---3---x---

* - the second time through the chorus, it goes from this chord right into the bridge

Bridge - "cold"

e---0---0---3---0---0---0---3---
B---0---0---0---1---0---0---0---
G---1---2---0---0---1---2---0---
D---0---3---0---2---0---3---0---
A---2---3---2---0---2---3---2---
E---0---1---3---x---0---1---3---

"yeeeeeeeaaaaah"

e---0---0---3---0---1---3---0---1---3---
B---2---0---0---2---3---0---1---3---0---
G---2---2---0---2---2---0---0---2---0---
D---2---3---0---2---0---0---2---0---0---
A---0---3---2---0---x---2---3---x---2---
E---x---1---3---x---x---3---x---x---3---

back into
                                              (*)
e---1--0--1---0---0----0-----|---1--0--1---0---0---3---
B---3--3--3---1--1(h3)-1(p0)-|---3--3--3---1---1---3---
G---2--2--2---2---0----0-----|---2--2--2---2---0---0---
D---0--0--0---3---2----0-----|---0--0--0---3---2---0---
A--(0)-x--x--(0)--3----2-----|--(0)-x--x--(0)--0---2---
E---x--x--x---x---x---(3)----|---x--x--x---x---x---3---

* - ends on this chord
 
2013, Sep
W

I’ll Take You On

I'll Take You On - Howie Day
tab by Mike Ingram - nakedguy69@hotmail.com

Capo at 1st fret (all tabs relative to the capo)
--the very first version, 8/22/02, has no capo.  many versions after that have it on the 2nd fret

Intro/Verse

e---3--3----3--3--2---
B---3--3----3--3--3---
G---0--0----0--0--2---
D---0--2----0--2--0---
A---2--2----2--2--x---
E---3--0----3--0--2---

"Maybe I'm new at this..."

e---0--3--2----3--2--3--|--0--3--2----3--2--3---|---3--2--3---
B---1--0--3----3--3--3--|--1--0--3----3--3--3---|---3--3--3---
G---2--0--2----0--2--0--|--2--0--2----0--2--0---|---0--2--0---
D---2--0--0----0--0--2--|--2--0--0----2--0--0---|---2--0--0---
A---0--2-(0)---2--x--2--|--0--2-(0)---2--x--2---|---2--x--2---
E---x--3-(2)---3--2--0--|--x--3-(2)---0--2--3---|---0--2--3---

"I'll take you on..."

e---3--2--0--0---3--x--0---
B---3--3--1-0h1--3--x--1---
G---0--2--2--2---0--2--2---
D---2--0--2--2---0--3--2---
A---2--x--0--0---2--3--0---
E---0--2--x--x---3--1--x---

"But you don't..."

e---3---2---
B---3---3---
G---0---2---
D---0---0---
A---2--(0)--
E---3---x---

"I'll give it all away..."  (second)

e---3--x--0---
B---3--x--1---
G---0--2--2---
D---0--3--2---
A---2--3--0---
E---3--1--x---

"But you don't feel much better..."
   (1st time)     (2nd time into bridge)
e---3--2--0---|---3--2--0---
B---3--3--1---|---3--3--0---
G---0--2--2---|---0--2--2---
D---0--0--2---|---0--0--1---
A---2-(0)-0---|---2-(0)-2---
E---3--x--x---|---3--x-(0)--

Bridge:  

e---0--0--0--3--2---
B---0--0--1--3--3---
G---0--2--0--0--2---
D---2--1--2--0--0---
A---2--2--3--2--x---
E---0-(0)-x--3--2---

Post bridge:

e---0--3--2----3--2--3--|--0--3--2----3--2--3---
B---1--0--3----3--3--3--|--1--0--3----3--3--3---
G---2--0--2----0--2--0--|--2--0--2----0--2--0---
D---2--0--0----0--0--2--|--2--0--0----2--0--0--- (x2)
A---0--2--x----2--x--2--|--0--2--x----2--x--2---
E---x--3--2----3--2--0--|--x--3--2----0--2--3---

Then
               "I'll give it..."
e---3--2--0---3--x--0---
B---3--3--1---3--x--1---
G---0--2--2---0--2--2---
D---2--0--2---0--3--2---
A---2--x--0---2--3--0---
E---0--2--x---3--1--x---

"But you don't..."

e---3---2---
B---3---3---
G---0---2---
D---0---0---
A---2--(0)--
E---3---x---

"I'll give it all away..."  (second)

e---3--x--0---
B---3--x--1---
G---0--2--2---
D---0--3--2---
A---2--3--0---
E---3--1--x---

"But you don't feel much better..."

e---3--2--
B---3--3--
G---0--2-- immediately into outro
D---0--0--
A---2-(0)-
E---3--x--

Outro:         "Can we stop all the world now..."

e---0--3--2----3--2--3--|--0--3--2----3--2--3---
B---1--0--3----3--3--3--|--1--0--3----3--3--3---
G---2--0--2----0--2--0--|--2--0--2----0--2--0---
D---2--0--0----0--0--2--|--2--0--0----2--0--0--- 
A---0--2--x----2--x--2--|--0--2--x----2--x--2---
E---x--3--2----3--2--0--|--x--3--2----0--2--3---

"I'll take you on..."

e---3--2--3---
B---3--3--3---
G---0--2--0---
D---2--0--0---
A---2--x--2---
E---0--2--3---

back into

e---3--3----3--3--2---|----------3---
B---3--3----3--3--3---|----------3---
G---0--0----0--0--2---|----------0---
D---0--2----0--2--0---|-ends on--0---
A---2--2----2--2--x---|----------2---
E---3--0----3--0--2---|----------3---
 
2013, Sep
W

Trouble In Here

Trouble In Here - Howie Day
tab by Mike Ingram - nakedguy69@hotmail.com

Intro

e---0--------0---
B---3--------3---
G---4--------2---
D---4--------0--- x4
A---2--0--2--x---
E---x--------x---

Verse

e---0--------0--------2--(3)--0---
B---3--------3--------1---3---3---
G---4--------2--------2---0---2---
D---4--------0---(x3)-0---0---0---
A---2--0--2--x--------x---2---x---
E---x--------x--------x---3---x---

Chorus

e--(2)--3---0-3-2--(2)--0---0---
B--(2)--3---0------(2)--0---2---
G--(2)--0---0------(2)--1---2---
D---4---0---2--(x3)-4---0---2---
A---4---2---2-------4---2---0---
E---2---3---0-------2---0---x---

Break/Outro

e---0---0---0--(0)---
B---3---3---0--(0)---
G---4---2---1--(1)---
D---4---0---2--(0)---
A---2---x---2--(2)---
E---x---x---0--(0)---

Lead over the Break/Outro

e-------------------------
B---3p2--(x4)---5p3--(x4)-
G----4-----------4--------

and an octave higher at

e-------------------------
B---15p14--(x4)--17p15--(x4)-
G----16-----------16--------
 
2013, Sep
W

Sunday Morning Song

Sunday Morning Song - Howie Day
tab by Mike Ingram - nakedguy69@hotmail.com

no capo on the album, but live with the band it's been with a capo at 1
live you'll hear the G#m chord being throw in more here and there

Verse (first time through)

e---0---2---3---3---|---0---2---3---1---|---0---2---3---3---|---0---2---3---1---
B---1---3---3---3---|---1---3---3--(0)--|---1---3---3---3---|---1---3---3--(0)--
G---2---2---0---0---|---2---2---0---4---|---2---2---0---0---|---2---2---0---4---
D---2---0---0---2---|---2---0---0--(0)--|---2---0---2---0---|---2---0---0--(0)--
A---0--(0)--2---2---|---0--(0)--2---x---|---0--(0)--2---2---|---0--(0)--2---x---
E---x---x---3---0---|---x---x---3---4---|---x---x---0---3---|---x---x---3---4---

Second time through

e---0---2---3---3---|---0---2---3---3---|---0---2---3-----3---|---0---2---
B---1---3---3---3---|---1---3---3---3---|---1---3---3-----3---|---1---3---
G---2---2---0---0---|---2---2---0---0---|---2---2---0-----0---|---2---2---
D---2---0---0---2---|---2---0---0---2---|---2---0---0-----2---|---2---0---
A---0--(0)--2---2---|---0--(0)--2---2---|---0--(0)--2-----2---|---0--(0)--
E---x---x---3---0---|---x---x---3---0---|---x---x---3--2--0---|---x---x---

Chorus

e---0---2---0---2---
B---1---3---1---3---
G---0---0---2---2---
D---2---0---2---0---
A---3---2---0--(0)--
E---x--(0)--x---x---

Last verse ("we bend i break")

e---0---2---3---1---|---0---2---3---3---|---0---2---3-----3---|---0---2---
B---1---3---3--(0)--|---1---3---3---3---|---1---3---3-----3---|---1---3---
G---2---2---0---4---|---2---2---0---0---|---2---2---0-----0---|---2---2---
D---2---0---0--(0)--|---2---0---0---2---|---2---0---0-----2---|---2---0---
A---0--(0)--2---x---|---0--(0)--2---2---|---0--(0)--2-----2---|---0--(0)--
E---x---x---3---4---|---x---x---3---0---|---x---x---3--2--0---|---x---x---

Last chorus

e---0---2---0---2--------0---2---
B---1---3---1---3--------1---3---
G---0---0---2---2--(x2)--2---2---
D---2---0---2---0--------2---0---
A---3---2---0--(0)-------0--(0)--
E---x--(0)--x---x--------x---x---

Outro

e---0---0---3---1---|---0---2---3---
B---1---1---3--(0)--|---1---3---3---
G---0---2---0---4---|---0---2---0---
D---2---2---0--(0)--|---2---0---0---
A---3---0---2---x---|---3--(0)--2---
E---x---x---3---4---|---x---x---3---

Alternate way to play the G#m chord (in case you're having trouble)

e---x---
B---6---
G---4---
D--(0)--
A---x---
E---4---
 
2013, Sep
W

Collide

Collide – Howie Day
tab by Mike Ingram – nakedguy69@hotmail.com

Capo at 4th fret – all tabs relative to capo

Intro/Verse/Chorus

$1.(0).$2.3.$3.0.$4.0.$5.2.$6.3 $1.(0).$2.3.$3.0.$4.0.$5.(0).$6.2 $1.(0).$2.3.$3.0.$4.2.$5.2.$6.0 $1.(0).$2.0.$3.0.$4.2.$5.3.$6.x ||

Bridge

$5.2.$6.x $4.2 $3.0 $5.3 $4.2 $3.0 $1.2.$2.3.$3.2.$4.0.$5.(0).$6.x ||

 
2013, Sep
W

Perfect Time of Day

Perfect Time of Day - Howie Day
tab by Mike Ingram - nakedguy69@hotmail.com

Intro/Verse

e---0----0----0--0--0----(3)----
B---0----3----1--1--1----(0)----
G---5----4----2--0--2----(0)----
D---7----5----3--3--3----(0)----
A---0---(0)---x--x--x----(2)----
E--(0)---x----x--x--x----(3)----

sometimes the G chord is hit after the F on the way back to the Am
also, sometimes you'll hear the e---3 added to chords

Pre-chorus - "and you..."

e---3---0--0---
B---0---1--1---
G---0---2--0---
D---0---3--3---
A---2---x--x---
E---3---x--x---

Chorus - "let your colors..."

e---0---3---0----3----
B---1---0---1----0----
G---0---0--2(0)--0----
D---2---0---3----0----
A---3---2---x----2----
E---x---3---x----3----

Looped outro "lead"

e-----3---3-----
B---1---1---1---
 
2013, Sep
W

Brace Yourself

Brace Yourself - Howie Day
tab by Mike Ingram - nakedguy69@hotmail.com

Capo at 1st fret (all tab is relative to the capo)

Intro

e---0---0---3---
B---1---1---0---
G--0h2--2---0---
D---2---2---0---
A---0---0---2---
E---x---x---3---

Verse (1st and 2nd lines)

e---0---0---3---
B---1---1---0---
G---2---0---0---
D---2---2---0---
A---0---3---2---
E---x---x---3---

3rd line ("I would hold...")

e---0---3---0---
B---1---0---0---
G---2---0---1---
D---2---0---0---
A---0---2---2---
E---x---3---0---

4th line

e---0---0---3---
B---1---1---0---
G---2---0---0---
D---3---2---0---
A---x---3---2---
E---x---x---3---

Chorus
                                               (*)
e---0---3--2p0---1---0---0---3--|--0---3--2p0---0---0---3---
B---1---0---3----3---1---1---0--|--1---0---3----3---1---0---
G---2---0---2----2---0---2---0--|--2---0---2----0---2---0---
D---2---0---0----0---2---2---0--|--2---0---0----2---2---0---
A---0---2--(0)--(0)--3---0---2--|--0---2--(0)---2---0---2---
E---x---3---x----x---x---x---3--|--x---3---x----0---x---3---

* - in older live versions, this was played as a Dm

Lead in to bridge

e---0---
B---0---
G---1---
D---0---
A---2---
E---0---

Bridge part one ("On and on...")

e---0---0---1---0---
B---1---1---3---0---
G---2---0---2---1---
D---2---2---0---0---
A---0---3--(0)--2---
E---x---x---x---0---

Bridge part two ("Gooooone...")

e---0---0---0---3--|--1---0---0---3---|---0---0---0---3--|--1---0---0---0---
B---1---1---1---0--|--3---1---1---0---|---1---1---1---0--|--3---1---1---0---
G---2---0---2---0--|--2---0---2---0---|---2---0---2---0--|--2---0---2---1---
D---3---2---2---0--|--0---2---2---0---|---3---2---2---0--|--0---2---2---0---
A---x---3---0---2--|-(0)--3---0---2---|---x---3---0---2--|-(0)--3---0---2---
E---x---x---x---3--|--x---x---x---3---|---x---x---x---3--|--x---x---x---0---