#41 [dmb]
howie day
transcribed: jack pelletier

the only difference between the dave version of this song and the howie
day version is the way that hosie voices the chords, particularly the 
Em7 chord
            dave's pattern  
          c5/a                         
chords  e--3----2----0----0-----0-----------------
	b--3----3----3----3-----3------------------
        g--5----2----0----0-or--2------------------
	d--5----4----2----4-----0------------------
	a-------2----2----5-----0------------------
	e------------0-------------------------

daves version-intro(howie usually does not include this, but it sounds
	really nice if you play it)
e---0----------------------------------------------------------------
b---0-------3-------3----------3-------3--------3------3-------------
g---5-----2---2----2-2-------2---2----2-2-----0---0---0-0------------
d---5---------------------------------------4-------4----------------
a-------2-------2------2--------------------5-------5----------------
E-------------------------0---------0--------------------------------

this is howies chord progression for the verse...he plays slight
variations of this through out the song...but this is generally the 
idea
          c5/a        bm7           em7            d6
e----3-3-3-3-3-3-3--2---2-5-5-2---7---7-10-10-7---0-0-5-5-0-
b----3-3-3-3-3-3-3--2h3-3-3-3-3---7h8-8-8--8--8---3-3-3-3-5-
g----5-5-5-5-5-5-5--2---2-2-2-2---7---7-7--7--7---0-0-0-0-0-
d----5-5-5-5-5-5-5--4---4-4-4-4---7h9-9-9--9--9---4-4-4-4-4-
a--0----------------2---2-----2---7---7-7--7--7---5-5-5-5-5-
E-----------------------------------------------------------

these are the chords for the chorus...listen for the rhythm
   g     d    cm?
e--3-----2----0-------------------------------------------------------
b--3-----3----0------------------------------------------------------
g--0-----2----0------------------------------------------------------
d--0-----0----2------------------------------------------------------
a--2----------3------------------------------------------------------
E--3----------------------------------------------------------------

the solo!- basically this improvisation on what dave plays during the 
sax solos in the real song.  howie plays the basic chord progression 
but, again uses different chord voicings. 
 here aree the chords..the rhythm is not there but..jsut listem to the part
and you should be able to get it. use alot of muting.
e--2-/-3-5--------7--------7---10-7-6-5-------------
b--2-/-3-5--------7--------7h8-8--8-7-7-------------
g--4-/-5-5-strum--7--strum-7---7--7-6-5-strum-------
d--4-/-5-5--------9--------7h9-9--9-8-7-------------
a---------------------------------------------------
E---------------------------------------------------

e--5-5-5-5--5-5-5-5-6-6/7-7-7-7--7-7-7-7--7--------7-6-5---------
b--5-5-5-5--5-5-5-5-6-6-7-7-7-7--7-7-7-7--8--------8-7-7---------
g--5-5-5-5--5-5-5-5-6-6-7-7-7-7--7-7-7-7--7-strum--7-6-5---strum-
d--5-5-5-5--5-5-5-5-----------------------9--------9-8-7---------
a----------------------------------------------------------------
E----------------------------------------------------------------
you get the idea...just use lots of muting and do a little improv!

outro of solo-goes back into chorus
e--2/(3)-3-3-5-5---2---2-5-5-2----7---7-10-10-7---0-0-5-5-0--
b--2/(3)-3-5-5-5---2h3-3-3-3-2h3--7h8-8-8--8--8---3-3-3-3-5--
g--4/(5)-5-5-5-5---2---2-2-2-2----7---7-7--7--7---0-0-0-0-0--
d--4/(5)-5-5-5-5---4---4-4-4-4----7h9-9-9--9--9---4-4-4-4-4--
a------------------2---2-----2----7---7-7--7--7---5-5-5-5-5--
E------------------------------------------------------------