africa [toto]
howie day
based on 03.18.01 zigs bar
transcribed: anthony g page <044287p@acadiau.ca>
03.27.01

verse/intro
    G            Bm               A  C#m F#m  A   G   Bm F#m   G            Bm
e |-3-3-3-3---2--2----2--0-0-0--|-0---4---2---5---3---0---2----3-3-3-3---2--2----2--0-0-0--|
b |-3-3-3-3---2--2h3--3--3-3-3--|-2---3---2---5---3---3---2----3-3-3-3---2--2h3--3--3-3-3--|
g |-4-4-4-4---2--2h4--4--4-4-4--|-2---6---2---6---0---4---2----4-4-4-4---2--2h4--4--4-4-4--|
d |-5-5-5-5---2--2h4--4--4-4-4--|-2---6---4---7---0---4---4----5-5-5-5---2--2h4--4--4-4-4--|
a |-5-5-5-5------2----2--2-2-2--|-0---4---4---7---2---2---4----5-5-5-5------2----2--2-2-2--|
E |-3-3-3-3---------------------|---------2---5---3-------2----3-3-3-3---------------------|
                                 "i hear the drums..."

into chorus/chorus
    A  C#m F#m  A   G   Bm    Em  C   G   D     Em C  G  D  Bm Em
e |-0---4---2---0---3---0--|--0---0---3---2--|--0--0--3--2--0--0-----|
b |-2---3---2---2---3---3--|--0---0---3---3--|--0--0--3--3--3--0-----|
g |-2---6---2---2---0---4--|--0---0---0---0--|--0--0--0--0--4--0-----|
d |-2---6---4---2---0---4--|--2---2---0---0--|--2--2--0--0--4--2-----|
a |-0---4---4---0---2---2--|--2---3---2---0--|--2--3--2--0--2--2-----|
E |---------2-------3------|--0-------3------|--0-----3--------0--2--|
   "hurry boy..."                              "it's gonna take some time..."