after you jam
howie day
transcribed by brendan o'rourke (daivmatthewsband@yahoo.com)
***************************************************************************

this follows an Em D progression, with the D coming in on an odd beat so listen for it
just play some barres and such whatever.

e-(7)---(5)----10/12-----------   this is the theme that should already be repeating.
b-(7)---(5)--------------------   parentheses indicates harmonics.
g-(7)---(5)--------------------
d-(7)---(5)--------------------
a------------------------------
E------------------------------

e-0--2--3--5--7--8--10--12-----
b------------------------------
g------------------------------
d------------------------------
a------------------------------
E------------------------------

e-0--2--3--5--7--8-------------   start this part on the third beat...
b------------------------------   or you could say the 2 of the above
g------------------------------   theme
d------------------------------
a------------------------------
E------------------------------

e------------------------------   bassline...i dont really indicate the number of 
b------------------------------   times each note is struck, but this should give 
g------------------------------   you the idea.
d------------------------------
a------------------------------
E-12--12--10--7/10--7/10--11---