howie day
after you
tabbed by brendan o'rourke
edited by nolan van wert (10.21.02)
(05.26.01) fixed (07.30.01)

begin with strumming the muted strings 
optional: add drum beats to compliment the first loop

insert any (or all) of these fills over the percussion:

fill 1 		         fill 2 
-12-10- or-12--10h12p10- --2h3p2
-------   -------------- -------
-------   -------------- -------
-------   -------------- -------
-------   -------------- -------
-------   -------------- -------

fill 3
-0--(12)---  play the harmonic on the 12th fret
----(12)---  
----(12)---
----(12)---  
----(12)---
----(12)--- 

intro/verse
      Em              D   			
-0---2---0---2---0---2---0---2-
-0---0---0---0---3---3---3---3-	
-0---0---0---0---2---2---2---2-
-2---2---2---2---0---0---0---0-
-2---2---2---2-----------------
-0---0---0---0-----------------

chorus
----
"We are walking after you..."		
C   Em	 D	     		
-3---3---0---2---0---2- 
-3--(3)--3---3---3---3-
-0---0---2---2---2---2-
-2---2---0---0---0---0-
-3---2-----------------
-----0-----------------

transition
Bb   C   G     G
-1---3---3-|--10-- 
-3---5---3-|--12--
-3---5---4-|--12--
-3---5---5-|--12--
-1---3---5-|--10--
---------3-|------

bridge

"I am stronger anyway..."
Bb   C   D   Bb  C   G
-1---0---2---1---3---3-
-3---1---3---3---5---3-
-3---0---2---3---5---0-
-3---2---0---3---5---0-
-1---3-------1---3---2-
---------------------3-

"We both know it can be like this..."
Em  D/F# C    			
-3---2---3-----	
-3---3---3-----	
-0---2---0-----	
-2---0---2-----
-2---x---3-----	
-0---2---------