Annalise - Howie Day
tab by Mike Ingram - nakedguy69@hotmail.com

Capo 1st

Verse

e---2---0---3---2--------
B---3---0---0---3--------
G---2---1---0---2--(0h2)-
D---0---2---0---0--------
A--(0)--2---2--(0)-------
E---x---0---3---x--------

Pre-chorus

e---3---2---0-(2)-
B---3---3---3-----
G---0---2---0-----
D---0---0---2-----
A---2---x---2-----
E---3---2---0-----

Chorus

e---0---3---
B---1---0---
G---0---0---
D---2---0---
A---3---2---
E---x---3---

After first chorus (this part could just be Howie forgetting what he was doing)

e---2---3---
B---3---0---
G---2---0---
D---0---0--- (x2)
A--(0)--2---
E---x---3---

Outro

e---2---0---x---0---
B---3---0---3---1---
G---2---1---3---0---
D---0---2---3---2---
A--(0)--2---1---3---
E---x---0---x---x---

well I could ask anyone about you
and they'll tell me all a lie, sweet lie, sweet lie
you could celebrate with all your fine jewelry
no one ever sees the grace, the happiness

and i hope it's not true
'cause i feel so close to you
annalise, asking
when you get home

we were three thousand miles away 
above too (?)
fascinating all of them (?)
nothing could get me through to you

god i hope it's not true
'cause i feel so close to you
annalise...asking
when you get home
will you come home with me

and i hope it's not you
'cause i feel so close to you
annalise...asking
when you get home
will you come home with me