at the stars (better than ezra)
howie day
transcribed by brendan o'rourke (daivmatthewsband@yahoo.com)

verse
   A   E       F#m  A   B
e--0---0-----|--2---5---7---
b--2---0-----|--2---5---7---
g--2---1h2---|--2---6---8---
d--2---2-----|--4---7---9---
a--0---2-----|--4---7---9---
E------0-----|--2---5---7---

chorus
   A   E  F#m          A   E   F#m   A   B
e--0---0---2---2/4--|--0---0----2----5---7--- 
b--2---0---2---2/4--|--2---0----2----5---7---
g--2---1---2---2/4--|--2---1----4----6---8---
d--2---2---4---4/6--|--2---2----4----7---9---
a--0---2---4---4/6--|--0---2----2----7---9---
E------0---2---2/4--|------0----2----5---7---

bridge
   D   A   E      F#m  A   B
e--0---0---0----|--2---5---7----
b--3---2---0----|--2---5---7----
g--2---2---1h2--|--2---6---8----
d--0---2---2----|--4---7---9----
a------0---2----|--4---7---9----
E----------0----|--2---5---7----