- babylon [david gray] -
- howie day -

sexual clamp....i mean capo on 1st. 
realtive to capo.

- verse -
   c                f                 em
e -0-0--0-----------0-0--0----------|-0---2--0-|
b -0-0--0h1p0-------1-1--0h1p0------|-0---0--0-|
g -0-0--0-----0-----2-2--2------2---|-0---0--0-|
d -2-2--2-------2---3-3--3--------3-|-2---2--2-|
a -3-3--3---------------------------|-2---2--2-|
e ----------------------------------|-0---0--0-|
  "friday night..."

- chorus -
   c     g  em f        c     g  am g
e -0--0--3--0--1--0---|-0--0--3--0--3--|
b -1--3--3--0--1--0---|-1--3--3--1--3--|
g -0--0--0--0--2--2---|-0--0--0--2--0--|
d -2--2--0--2--3--3---|-2--2--0--2--0--|
a -3--3--x--2--3------|-3--3--x--0--x--|
e -------3--0--1------|-------3-----3--|
  "if you want it..."   "let go of your heart..."

transcribed - anthony page - 044287p@acadiau.ca