Brace Yourself - Howie Day
tab by Mike Ingram - nakedguy69@hotmail.com

Capo at 1st fret (all tab is relative to the capo)

Intro

e---0---0---3---
B---1---1---0---
G--0h2--2---0---
D---2---2---0---
A---0---0---2---
E---x---x---3---

Verse (1st and 2nd lines)

e---0---0---3---
B---1---1---0---
G---2---0---0---
D---2---2---0---
A---0---3---2---
E---x---x---3---

3rd line ("I would hold...")

e---0---3---0---
B---1---0---0---
G---2---0---1---
D---2---0---0---
A---0---2---2---
E---x---3---0---

4th line

e---0---0---3---
B---1---1---0---
G---2---0---0---
D---3---2---0---
A---x---3---2---
E---x---x---3---

Chorus
                                               (*)
e---0---3--2p0---1---0---0---3--|--0---3--2p0---0---0---3---
B---1---0---3----3---1---1---0--|--1---0---3----3---1---0---
G---2---0---2----2---0---2---0--|--2---0---2----0---2---0---
D---2---0---0----0---2---2---0--|--2---0---0----2---2---0---
A---0---2--(0)--(0)--3---0---2--|--0---2--(0)---2---0---2---
E---x---3---x----x---x---x---3--|--x---3---x----0---x---3---

* - in older live versions, this was played as a Dm

Lead in to bridge

e---0---
B---0---
G---1---
D---0---
A---2---
E---0---

Bridge part one ("On and on...")

e---0---0---1---0---
B---1---1---3---0---
G---2---0---2---1---
D---2---2---0---0---
A---0---3--(0)--2---
E---x---x---x---0---

Bridge part two ("Gooooone...")

e---0---0---0---3--|--1---0---0---3---|---0---0---0---3--|--1---0---0---0---
B---1---1---1---0--|--3---1---1---0---|---1---1---1---0--|--3---1---1---0---
G---2---0---2---0--|--2---0---2---0---|---2---0---2---0--|--2---0---2---1---
D---3---2---2---0--|--0---2---2---0---|---3---2---2---0--|--0---2---2---0---
A---x---3---0---2--|-(0)--3---0---2---|---x---3---0---2--|-(0)--3---0---2---
E---x---x---x---3--|--x---x---x---3---|---x---x---x---3--|--x---x---x---0---