bunnies
howie day
transcribed by brendan o'rourke (daivmatthewsband@yahoo.com)

ok...this will a sort of toughy. I'm just gonna put some of the main themes howie plays.
the song follows an Am C G progression the whole song. you're gonna need the DL-4 
also to get some of the echo howie does on certain notes.

part I
e---------------------------------------------- yhis part is always played. sometime he loops it
b------13----------13-----------13------------- over all the chords or just the Am.
g----------14-----------14--------------------- this is just an Am formation at the 12th fret.
d--------------14-----------14----------------- you can just fingerpick that in any fashion, but
a--12------------------------------------------ i find this to be correct.
E----------------------------------------------

part II
e--12--14--7--8----- not always played. play this over the C and G.
b-------------------
g-------------------
d-------------------
a-------------------
E-------------------

part III   this part sort of sets in place the Am C G progression. just finger pick these chords.
there are variations so I'll put those also. interchange between the 2 to get a great sound.
like hammer the 1st fret on the b when playing the G and the same for the Am  
   C   G1   G2   Am1  Am2
e-------x----x----x----x-----
b--3----0----1----1----0-----
g--0----0----0----2----2-----
d--2----0----0----2----2-----
a--3----x----x----0----0-----
E-------3----3---------------

part IV
e--3--5--0-- play this over the C.
b-----------
g-----------
d-----------
a-----------
E-----------

part V
e--12\--10\--7/8- the 12 and 10 slide down is over the Am and the 7/8 is right at the beginning 
b---------------- of the C.
g----------------
d----------------
a----------------
E----------------

part VI
e--13\--15\--15\-- play the 13 and first 15 in the exact same place as the 12 10 slide above. and 
b----------------- the second 15 slide over the 7/8 slide from above. i like this part alot. it's
g----------------- not seen too often i don't think.
d-----------------
a-----------------
E-----------------