- buzzing: album version -
- howie day -

- intro/verse -
    em                        c   c7    em  d#7  d5          am7   c  d
e --7----7---10--7---7----7---3---0--|--7-----------0h2--2---0-----0--2--|
b --7h8--8---8---8---7----8---5---1--|--8---7----7--1----1---1-----1--3--|
g --7----7---7---7---7----7---5---3--|--7---6----7--0h2--2---0-----0--2--|
d --7h9--9---9---9---9----9---5---2--|--9---8----7--0----0---2-----2--0--|
a --7----7---7---7---7----7---3---3--|--7---6----5--0----0---0-----3--0--|
e -(0)--(0)-(0)-(0)-(0)--(0)---------|-(0)-------------------------------|
you can also play the chords em - c for verse when vocals come in

- chorus -
   c  g       em  d
e -3--3-------3---2--|
b -3--3-------3---3--|
g -0--0-------0---2--|
d -2--0-------2---0--|
a -3--x-------2---0--|
e ----3--(2)--0------|

original transcription - anthony page - 044287p@acadiau.ca

**********************************************************************************

- buzzing: live version -
- howie day -
- there were a few minor chord changes in the live performance since the ep -

- intro/verse -
    em                        c   c    em  d#7  d5     am7   c  d
e --7----7---10--7---7----7---3---0-|--7---------------0-----0--2--|
b --7h8--8---8---8---7----8---5---1-|--8---7----7------1-----1--3--|
g --7----7---7---7---7----7---5---3-|--7---6----7------0-----0--2--|
d --7h9--9---9---9---9----9---5---2-|--9---8----7------2-----2--0--|
a --7----7---7---7---7----7---3---3-|--7---6----5------0-----3--0--|
e -(0)--(0)-(0)-(0)-(0)--(0)--------|-(0)--------------------------|

- chorus -
   c  g       em  d
e -3--3-------3---2--|
b -3--3-------3---3--|
g -0--0-------0---2--|
d -2--0-------2---0--|
a -3--x-------2---0--|
e ----3--(2)--0------|

transcribed - anthony page - 044287p@acadiau.ca
edited by - mike ingram - nakedguy69@hotmail.com