Howie Day
Disco (Outro Jam)
Transcribed by Tanner Gates (tanner_calvin@hotmail.com)
Thanks to Anthony Page for previous Disco tabs
-----------------------------------------------------------
Capo on 2nd Fret...Notes relative to capo

Part I:
e--0-----3----2h3------
b--1(3)--3----3-3------
g--0-----2----2-2------
d--2-----0----0-0------
a--3-------------------
E----------------------

--He keeps the loop going and plays over it with:

e--0-----0(5)----------
b--1(3)--3-------------
g--0-----0-------------
d--2-----4-------------
a--3-----5-------------
E-----------------------

Part II
e--12--10--9--7--

--Does each note several times, listen for it!

Part III
--Do a loop of muting the strings to the beat--

Part IV
--Do a loop of drum beats--

Part V
--This part is sweet...
e--------3-2-----------------------------
b---3---3---3--------------------3-1-----
g-----2-------2---------0---0--------0----
d-0-------------0---------2------------2--
a---------------------3--------------------
E------------------------------------------

--Then he just plays some upstrokes of D and C near the bridge to get a bright sound--

Part V
Vocal Loop:
Is there nothing left to say......
Is there nothing left to say......