- disco (afternoon) -
- howie day -
- tab -

capo on 2nd fret - relative to capo

   a   em
e -0---0-0--(0)--3--2--0--3--2--0--|
b -0---0-0--(0)--0--0--0--0--0--0--|
g -6---7-6--(2)--0--0--0--0--0--0--|
d -7---0-7--(2)--2--2--2--0--0--0--|
a -7---7-7--(0)--2--2--2--2--2--2--|
e -5---5-5-------0--0--0--0--0--0--|
   "every night is disco night..."

   c  d 
e -0--2--|
b -1--3--|
g -0--2--|
d -2--0--|
a -3--0--|
e -------|
  "is there something we can do..."

   Bb  c   d  em  
e -----0---2--3--2--0--3--2--0--0--|
b -3---1---3--0--0--0--0--0--0--0--| 
g -3---0---2--0--0--0--0--0--0--0--|
d -3---2---0--2--2--2--2--2--2--0--|
a -1---3---0--2--2--2--2--2--2--2--|
e ------------0--0--0--0--0--0--0--|
  "you are...something new..."

transcribed - anthony page - 044287p@acadiau.ca