End of Our Days - Howie Day
tab by Mike Ingram - nakedguy69@hotmail.com

obviously this song is played on the piano, but this is a pretty close translation to guitar

Intro

e-----------------------------------------------
B-----------------------------------------------
G---7--7--7--7-----(6)------------7--7--7--7----
D---7--7--7--6-7----7--7--7--6-7--7--7--7--6-7--
A---5--5--5--5------7--7--7--7----5--5--5--5----
E-------------------5--5--5--5------------------

Verse
                   (*)
e--------------(0)----------
B--------------(0)----------
G--(6)------2---1---1-------
D---7---6---4---2---2-(6)---
A---7---7---4---2---2-(7)---
E---5---4---2---0---4-(4)---

* - touches on it walking back up to the A chord - either shape works

Pre-chorus ("I know...")

e--(0)--0---0---
B---3---2---0---
G---4---2---1---
D---4---2---2---
A---2---0---2---
E---x---x---0---

Chorus

e---0---0---0--|---0---0---2---0--|--(0)--0---0---0--|--(0)--0---0---
B---3---2---0--|---3---2---2---0--|---3---3---2---0--|---3---2---0---
G---2---2---1--|---2---2---2---1--|---4---2---2---1--|---4---2---1---
D---0---2---2--|---0---2---4---2--|---4---0---2---2--|---4---2---2---
A--(0)--0---2--|--(0)--0---4---2--|---2--(0)--0---2--|---2---0---2---
E---x---x---0--|---x---x---2---0--|---x---x---x---0--|---x---x---0---

Breakdown

e------------------------------------------------0---0---
B------------------------------------------------3---3---
G-----------7--6---------------------------------2---2---
D---4---6--(7)-7-----7----7---7----------4---6---0--(0)--
A---4---7---7--7---4/5\4------7---(x3)---4---7--(0)--4---
E---2---4---5--5----------7---5----------2---4---x---x---

Ending

e---------------
B---------------
G--(2)-----(6)--
D---4---6---7---
A---4---7---7---
E---2---4---5---