- everything else -
- howie day -

- verse -
    dm   gm   c  c# dm
e --5----3----5--4--5---|
b --6----3----5--6--7---|
g --7----3----5--6--7---|
d --7----5----5--6--7---|
a --5----5----3--4--5---|
e -------3--------------|

- chorus -
   f   am    dm  c   Bb  d#7
e -1---5or0--1---0---1---6--|
b -1---5or1--3---1---3---8--|
g -2---5or2--2---0---3---6--|
d -3---7or2--0---2---3---8--|
a --------0--0---3---1---6--|
e --------------------------|

- bridge -
    dm   gm   c  c# dm
e --1----3----0--x--1---|
b --3----3----1--1--3---|
g --2----3----0--x--2---|
d --0----0----2--3--0---|
a --0----x----3--4--0---|
e -------3--------------|
  "you want that girl" 

transcribed - anthony page - 044287p@acadiau.ca