I'll Take You On - Howie Day
tab by Mike Ingram - nakedguy69@hotmail.com

Capo at 1st fret (all tabs relative to the capo)
--the very first version, 8/22/02, has no capo.  many versions after that have it on the 2nd fret

Intro/Verse

e---3--3----3--3--2---
B---3--3----3--3--3---
G---0--0----0--0--2---
D---0--2----0--2--0---
A---2--2----2--2--x---
E---3--0----3--0--2---

"Maybe I'm new at this..."

e---0--3--2----3--2--3--|--0--3--2----3--2--3---|---3--2--3---
B---1--0--3----3--3--3--|--1--0--3----3--3--3---|---3--3--3---
G---2--0--2----0--2--0--|--2--0--2----0--2--0---|---0--2--0---
D---2--0--0----0--0--2--|--2--0--0----2--0--0---|---2--0--0---
A---0--2-(0)---2--x--2--|--0--2-(0)---2--x--2---|---2--x--2---
E---x--3-(2)---3--2--0--|--x--3-(2)---0--2--3---|---0--2--3---

"I'll take you on..."

e---3--2--0--0---3--x--0---
B---3--3--1-0h1--3--x--1---
G---0--2--2--2---0--2--2---
D---2--0--2--2---0--3--2---
A---2--x--0--0---2--3--0---
E---0--2--x--x---3--1--x---

"But you don't..."

e---3---2---
B---3---3---
G---0---2---
D---0---0---
A---2--(0)--
E---3---x---

"I'll give it all away..."  (second)

e---3--x--0---
B---3--x--1---
G---0--2--2---
D---0--3--2---
A---2--3--0---
E---3--1--x---

"But you don't feel much better..."
   (1st time)     (2nd time into bridge)
e---3--2--0---|---3--2--0---
B---3--3--1---|---3--3--0---
G---0--2--2---|---0--2--2---
D---0--0--2---|---0--0--1---
A---2-(0)-0---|---2-(0)-2---
E---3--x--x---|---3--x-(0)--

Bridge:  

e---0--0--0--3--2---
B---0--0--1--3--3---
G---0--2--0--0--2---
D---2--1--2--0--0---
A---2--2--3--2--x---
E---0-(0)-x--3--2---

Post bridge:

e---0--3--2----3--2--3--|--0--3--2----3--2--3---
B---1--0--3----3--3--3--|--1--0--3----3--3--3---
G---2--0--2----0--2--0--|--2--0--2----0--2--0---
D---2--0--0----0--0--2--|--2--0--0----2--0--0--- (x2)
A---0--2--x----2--x--2--|--0--2--x----2--x--2---
E---x--3--2----3--2--0--|--x--3--2----0--2--3---

Then
               "I'll give it..."
e---3--2--0---3--x--0---
B---3--3--1---3--x--1---
G---0--2--2---0--2--2---
D---2--0--2---0--3--2---
A---2--x--0---2--3--0---
E---0--2--x---3--1--x---

"But you don't..."

e---3---2---
B---3---3---
G---0---2---
D---0---0---
A---2--(0)--
E---3---x---

"I'll give it all away..."  (second)

e---3--x--0---
B---3--x--1---
G---0--2--2---
D---0--3--2---
A---2--3--0---
E---3--1--x---

"But you don't feel much better..."

e---3--2--
B---3--3--
G---0--2-- immediately into outro
D---0--0--
A---2-(0)-
E---3--x--

Outro:         "Can we stop all the world now..."

e---0--3--2----3--2--3--|--0--3--2----3--2--3---
B---1--0--3----3--3--3--|--1--0--3----3--3--3---
G---2--0--2----0--2--0--|--2--0--2----0--2--0---
D---2--0--0----0--0--2--|--2--0--0----2--0--0--- 
A---0--2--x----2--x--2--|--0--2--x----2--x--2---
E---x--3--2----3--2--0--|--x--3--2----0--2--3---

"I'll take you on..."

e---3--2--3---
B---3--3--3---
G---0--2--0---
D---2--0--0---
A---2--x--2---
E---0--2--3---

back into

e---3--3----3--3--2---|----------3---
B---3--3----3--3--3---|----------3---
G---0--0----0--0--2---|----------0---
D---0--2----0--2--0---|-ends on--0---
A---2--2----2--2--x---|----------2---
E---3--0----3--0--2---|----------3---