howie day
karma police (radiohead)
tabbed by brendan o'rourke (daivmatthewsband@yahoo.com)
-------------------------------------

howie changes some structures from how radiohead plays it and some spots have
different chords.

-intro/verse-                                           (quickly)
  Am  D/F#   Em    G   Am  D   Em    G  Am   D  G  G/F#  C C/B   Am    Bm  D
e--0----0----0-----3---0---0---0-----3---0---2--3---3----0--0--0---0---0---2---
B--1----3----0(3)--3---1---3---0(3)--3---1---3--3---3----1--1--1---0---3---3---
G--2----2----0-----0---2---2---0-----0---2---2--0---0----0--0--2---2---4---2(0)
D--2----0----2-----0---2---0---2-----0---2---0--0---0----2--0--2---2---4---0---
A--0----x----2-----2---0-------2-----2---0------2---0----3--2--0---0---2-------
E-------2----0---2-3-----------0---2-3----------3---2--------------------------

-chorus-
   C   D  G   F#  C   D  G   F#  C   D  G  Bm  C   Bm  D
e--0---2--3---2---0---2--3---2---0---2--3---0--0----0--2-----
B--1---3--3---2---1---3--3---2---1---3--3---3--1h3--3--3-----
G--0---2--0---3---0---2--0---3---0---2--0---4--0----4--2-----
D--2---0--0---4---2---0--0---4---2---0--0---4--2----4--0-----
A--3------2---4---3------2---4---3------2---2--3----2--------
E---------3---2----------3---2----------3--------------------

-outro-
  Bm  D  G  D  G  D  E7 
e--0--2--3--2--3--2--0----------------
B--3--3--3--3--3--3--0(3)-------------
G--4--2--0--2--0--2--1----------------
D--4--0--0--0--0--0--0----------------
A--2-----2-----2-----2----------------
E--------3-----3-----0----------------