- kristina -
- howie day -

- verse -
    d            bm     gm7 a7       d         a   c   g
e --2---2/3--0---2--0---3---5-or-0-|-2---2/3---0---0-----|
b --3---3----3---3--3---3---5-or-2-|-3---3-----0---0---0-|
g --2---2----2---4--4---3---6-or-0-|-2---2-----6---0---0-|
d --0---0----0---4--4---3---5-or-2-|-0---0-----7---2---0-|
a --0---0----0---2--2---5---7-or-0-|-0---0-----7---3---2-|
e --------------------------5------|-------------------3-|

- chorus -
   c   g   d   d7
e -0---3---2---2--|
b -0---3---3---1--|
g -0---0---2---2--|
d -2---0---0---0--|
a -3---x---0---0--|
e -----3------(2)-|

- outro -
   d       a   d   g
e -2h3p0---0---0---3--|
b -3-------0---0---3--|
g -2-------6---0---0--|
d -0-------7---2---0--|
a -0-------7---3---x--|
e -----------------3--|

transcribed - anthony page - 044287p@acadiau.ca