lick my lips
howie day
jason gonzales - shaclackclak@aol.com 
standard tuning 

intro: 

---3--------------3-------------         ---3----------0----------1-------0----------3--------0- 
---1--------------3------------          ---1----------0----------2-------1----------3--------0 
---2--------------0------------          ---2----------0----------1-------0----------0--------1 
---2--------------0-----------           ---2----------2----------3-------2----------0--------2 
---0--------------2------------          ---0----------2----------3-------3----------2--------2 
---0--------------3------------          ---0----------0----------1-------0----------3--------0 
"Lick my lips im fading..."      "Fading, im slowly fading into you.." 

verse: 
-----0----------------1-------------           ----0-------3-------0-------3----------------- 
-----1----------------2-------------           ----1-------3-------1-------3----------------- 
-----0----------------1-------------           ----0-------0-------2-------0----------------- 
-----2----------------3------------            ----2-------0-------2-------0-------------------- 
-----3----------------3-------------           ----3-------2-------0-------2--------------------- 
-----0----------------1-------------           ----0-------3-------0-------3------------------- 
"well we can all change.."            "I was never so amazed...."