- morning after -
- howie day -

verse -
   am      f       c       g
e ----------------(3)-(3)--3--|
b -0---1---0---1---0---1---0--|
g -2---2---2---2---0---0---0--|
d -2---2---3---3---2---2---0--|
a -0---0-------3---3---3---x--|
e -------------------------3--|

- chorus -
    em  f   c       g
e -(3)--1---0-------3--|
b -(3)--1---0(h1)---3--|
g --0---2---0-------0--|
d --2---3---2-------0--|
a --2---3---3-------x--|
e --0---1-----------3--|

- alternate chorus -
   em       f     c    g
e -7----10--8-----8----3--|
b -7h8--8---10----8----3--|
g -7----7---10----9----4--|
d -7h9--9---10----10---5--|
a -7----7---8-----10---5--|
e -0----0---------8----3--|

- bridge -
  emaj7   f   c      g
e -0------1---0------3--|
b -3------1---1(h3)--3--|
g -1------2---0------0--|
d -0------3---2------0--|
a -2------3---3------x--|
e -0------1----------3--|

transcribed - anthony page - 044287p@acadiau.ca