Numbness For Sound - Howie Day
tab by Mike Ingram - nakedguy69@hotmail.com

Capo 2nd fret - all tab relative to the capo

Intro/Verse

e---1--0--1---0---0----0-----|---1--0--1---0---0---3---
B---3--3--3---1--1(h3)-1(p0)-|---3--3--3---1---1---3---
G---2--2--2---2---0----0-----|---2--2--2---2---0---0---
D---0--0--0---3---2----0-----|---0--0--0---3---2---0---
A--(0)-x--x--(0)--3----2-----|--(0)-x--x--(0)--0---2---
E---x--x--x---x---x---(3)----|---x--x--x---x---x---3---

Pre-chorus/Chorus
                                           (*)
e--0(3)-0---0---0---3---0---|---0---0---0---3---0---
B---1---1---0---1---3---1---|---1---0---1---3---1---
G---2---0---0---2---0---2---|---0---0---2---0---2---
D---3---2---2---2---0---3---|---2---2---2---0---3---
A---x---0---2---0---2---x---|---3---2---0---2---x---
E---x---x---0---x---3---x---|---x---0---x---3---x---

* - the second time through the chorus, it goes from this chord right into the bridge

Bridge - "cold"

e---0---0---3---0---0---0---3---
B---0---0---0---1---0---0---0---
G---1---2---0---0---1---2---0---
D---0---3---0---2---0---3---0---
A---2---3---2---0---2---3---2---
E---0---1---3---x---0---1---3---

"yeeeeeeeaaaaah"

e---0---0---3---0---1---3---0---1---3---
B---2---0---0---2---3---0---1---3---0---
G---2---2---0---2---2---0---0---2---0---
D---2---3---0---2---0---0---2---0---0---
A---0---3---2---0---x---2---3---x---2---
E---x---1---3---x---x---3---x---x---3---

back into
                                              (*)
e---1--0--1---0---0----0-----|---1--0--1---0---0---3---
B---3--3--3---1--1(h3)-1(p0)-|---3--3--3---1---1---3---
G---2--2--2---2---0----0-----|---2--2--2---2---0---0---
D---0--0--0---3---2----0-----|---0--0--0---3---2---0---
A--(0)-x--x--(0)--3----2-----|--(0)-x--x--(0)--0---2---
E---x--x--x---x---x---(3)----|---x--x--x---x---x---3---

* - ends on this chord