Perfect Time of Day - Howie Day
tab by Mike Ingram - nakedguy69@hotmail.com

Intro/Verse

e---0----0----0--0--0----(3)----
B---0----3----1--1--1----(0)----
G---5----4----2--0--2----(0)----
D---7----5----3--3--3----(0)----
A---0---(0)---x--x--x----(2)----
E--(0)---x----x--x--x----(3)----

sometimes the G chord is hit after the F on the way back to the Am
also, sometimes you'll hear the e---3 added to chords

Pre-chorus - "and you..."

e---3---0--0---
B---0---1--1---
G---0---2--0---
D---0---3--3---
A---2---x--x---
E---3---x--x---

Chorus - "let your colors..."

e---0---3---0----3----
B---1---0---1----0----
G---0---0--2(0)--0----
D---2---0---3----0----
A---3---2---x----2----
E---x---3---x----3----

Looped outro "lead"

e-----3---3-----
B---1---1---1---