- she says -
- howie day -

- verse -
   c             c                        am
e -0--0--3--0--|-0--0--3--0---0--0--3--0--3--3--|
b -3--1--0--1--|-3--1--0--1---3--1--0--1--1--0--|
g -0--0--0--0--|-0--0--0--0---0--0--0--0--0--0--|
d -2--2--2--2--|-2--2--2--2---2--2--2--2--2--2--|
a -3--3--3--3--|-3--3--3--3---3--3--3--3--0--0--|
e -------------|--------------------------------|
		* alternate version

- pre chorus -

   f  g  c     am
e -3--3--0--0--0--|
b -1--0--1--1--1--|
g -2--0--0--0--2--|
d -3--0--2--0--2--|
a ----2--3--2--0--|
e ----3-----------|

- chorus -

   f  g  am c    em f
e -1--3--0--0--|-0--1--|
b -1--3--1--1--|-0--1--|
g -2--0--2--0--|-0--2--|
d -3--0--2--2--|-2--3--|
a -3--x--0--3--|-2--3--|
e -1--3--------|-0--1--|

- outro -

   em f  g  am 
e -0--1--3--0--|-0--1--0--|
b -0--1--3--1--|-0--1--0--|
g -0--2--0--2--|-0--2--0--|
d -2--3--0--2--|-2--3--2--|
a -2--3--x--o--|-2--3--3--|
e -0--1--3-----|-0--1-----|

transcribed - anthony page - 044287p@acadiau.ca