- slow down -
- howie day -

- intro/verse -
   bm        g    bm         g   f#   f# f  e7
e -------0---0--|--------0---0---0--|-0--0--0--|
b -------0---0--|--------0---0---0--|-0--0--0--|
g -------8--/4--|--------8--/4---3--|-3--1--1--|
d -----9----/5--|-----9-----/5---4--|-4--2--0--|
a ---9------/5--|---9-------/5---4--|-4--2--2--|
e -7--------/3--|-7---------/3---2--|-2--1--0--|

- chorus -
    bm   g   d       a    bm*
e --0----3---2(h3)---0--|-2----5--|
b --3----3---3-------2--|-2h3--3--|
g --4----0---2-------2--|-2----2--|
d --4----0---0-------2--|-2h4--4--|
a --2----x---0-------0--|-2----2--|
e -------3--------------|---------|
                          *alternate bm 

transcribed - anthony page - 044287p@acadiau.ca