sorry, so sorry
howie day
australia (2000)
transcribed: anthony g page <044287p@acadiau.ca>
11.11.00

capo on 1st fret, all notes are relative.

e |-----------0------------------0------------2---
b |-----------0------------------0------------0---
g |-----------0------------------0------------0---
d |-----------2------------------2------------2---
a |-----------3------------------2------------2---
E |------------------------------0------------0---
   spend your nights here, we'll always be up late

e |---------0-------0------2--------------------
b |---------0-------3------0--------------------
g |---------0-------0------0--------------------
d |---------2-------2------2--------------------
a |---------3-------3------2--------------------
E |------------------------0--------------------
   keep eachother on, chemicals can make us stay

e |---------------0-------0-------------0-------------------2-----
b |---------------0-------3-------------0-------------------0-----
g |---------------0-------0-------------0-------------------0-----
d |---------------2-------2-------------2-------------------2-----
a |---------------3-------3-------------2-------------------2-----
E |-------------------------------------0-------------------0-----
   i meant you're outta line, with your friends and all your jokes

e |-------0-------0----0------0------------2----------0--
b |-------0-------3----0------0------------0----------3--
g |-------0-------0----0------0------------0----------2--
d |-------2-------2----2------2------------2----------0--
a |-------3-------3----3------2-----------------------0--
E |---------------------------0--------------------------
    movin out tonight, making phones that hot to hold

e |---------0----3-----0------0-----------0----------0------0-
b |---------1----1-----1p0----3-----------1----------1p0----3-
g |---------2----2-----2------2-----------2----------2------2-
d |---------2----2-----2------0-----------2----------2------0-
a |---------0----0-----0------0-----------0----------0------0-
E |-----------------------------------------------------------
    and you really didn't   know, and you really didn't   know

band intro

e |-----------0--------------0------------2---
b |-----------0--------------0------------0---
g |-----------0--------------0------------0---
d |-----------2--------------2------------2---
a |-----------3--------------2------------2---
E |--------------------------0------------0---
   spend your days here, and never give up now

e |-------------0-----------0---------2---------------------
b |-------------0-----------3---------0---------------------
g |-------------0-----------0---------0---------------------
d |-------------2-----------2---------2---------------------
a |-------------3-----------3---------2---------------------
E |-----------------------------------0---------------------
   you keep the children down, you're down for one more hour

e |--------0-----------0---------0---------------2---------
b |--------0-----------3---------0---------------0---------
g |--------0-----------0---------0---------------0---------
d |--------2-----------2---------2---------------2---------
a |--------3-----------3---------2---------------2---------
E |------------------------------0---------------0---------
   imagine i would feel, if your friends were all your date

e |-------0--------------------0----------------2---0-
b |-------0--------------------0----------------0---3-
g |-------0--------------------0----------------0---2-
d |-------2--------------------2----------------2---0-
a |-------3--------------------2----------------2---0-
E |----------------------------0----------------0-----
   moving out with her, do you shake, you'll be ok

e |---------0----3-----0------0-------------0----------0------0-
b |---------1----1-----1p0----3-------------1----------1p0----3-
g |---------2----2-----2------2-------------2----------2------2-
d |---------2----2-----2------0-------------2----------2------0-
a |---------0----0-----0------0-------------0----------0------0-
E |-------------------------------------------------------------
    and you really didn't   know, i swear i really didn't   know

e |---------0----------0---------0---------2-
b |---------0----------0---------1---------3-
g |---------0----------6---------0---------2-
d |---------2----------7---------2---------0-
a |---------2----------7---------3---------0-
E |---------0--------------------------------
    so i'm sorry, so sorry, i'm sorry, oh no

e |---------0----------0---------0---------2-
b |---------0----------0---------1---------3-
g |---------0----------6---------0---------2-
d |---------2----------7---------2---------0-
a |---------2----------7---------3---------0-
E |---------0--------------------------------
   and i'm sorry, so sorry, i'm sorry,  oh

e |-----------0------------------0------------2---
b |-----------0------------------0------------0---
g |-----------0------------------0------------0---
d |-----------2------------------2------------2---
a |-----------3------------------2------------2---
E |------------------------------0------------0---
   spend your nights here, we'll always be up late

e |---------0-------0------2--------------------
b |---------0-------3------0--------------------
g |---------0-------0------0--------------------
d |---------2-------2------2--------------------
a |---------3-------3------2--------------------
E |------------------------0--------------------
   keep eachother on, chemicals can make us stay

e |---------------0-------0-------------0-------------------2-----
b |---------------0-------3-------------0-------------------0-----
g |---------------0-------0-------------0-------------------0-----
d |---------------2-------2-------------2-------------------2-----
a |---------------3-------3-------------2-------------------2-----
E |-------------------------------------0-------------------0-----
   i meant you're outta line, with your friends and all your jokes

e |-------0-------0----0------0------------2----------0--
b |-------0-------3----0------0------------0----------3--
g |-------0-------0----0------0------------0----------2--
d |-------2-------2----2------2------------2----------0--
a |-------3-------3----3------2-----------------------0--
E |---------------------------0--------------------------
   moving out tonight, making phones that hot to hold

e |---------0----3-----0------0-------------0----------0------0-
b |---------1----1-----1p0----3-------------1----------1p0----3-
g |---------2----2-----2------2-------------2----------2------2-
d |---------2----2-----2------0-------------2----------2------0-
a |---------0----0-----0------0-------------0----------0------0-
E |-------------------------------------------------------------
    and you really didn't   know, i swear i really didn't   know

e |---------0----------0---------0---------2-
b |---------0----------0---------1---------3-
g |---------0----------6---------0---------2-
d |---------2----------7---------2---------0-
a |---------2----------7---------3---------0-
E |---------0--------------------------------
    so i'm sorry, so sorry, i'm sorry, oh no

e |---------0----------0---------0---------2-
b |---------0----------0---------1---------3-
g |---------0----------6---------0---------2-
d |---------2----------7---------2---------0-
a |---------2----------7---------3---------0-
E |---------0--------------------------------
   and i'm sorry, so sorry, i'm sorry,  oh

e |---------0----3-----0------0-------------0----------0------0-
b |---------1----1-----1p0----3-------------1----------1p0----3-
g |---------2----2-----2------2-------------2----------2------2-
d |---------2----2-----2------0-------------2----------2------0-
a |---------0----0-----0------0-------------0----------0------0-
E |-------------------------------------------------------------
    get me outta here, oh no,     i swear i really didn't   know

e |---------0----------0---------0---------2------
b |---------0----------0---------1---------3------
g |---------0----------6---------0---------2------
d |---------2----------7---------2---------0------
a |---------2----------7---------3---------0------
E |---------0-------------------------------------
   and i'm sorry, so sorry, i'm sorry, so sorry...