Sunday Morning Song - Howie Day
tab by Mike Ingram - nakedguy69@hotmail.com

no capo on the album, but live with the band it's been with a capo at 1
live you'll hear the G#m chord being throw in more here and there

Verse (first time through)

e---0---2---3---3---|---0---2---3---1---|---0---2---3---3---|---0---2---3---1---
B---1---3---3---3---|---1---3---3--(0)--|---1---3---3---3---|---1---3---3--(0)--
G---2---2---0---0---|---2---2---0---4---|---2---2---0---0---|---2---2---0---4---
D---2---0---0---2---|---2---0---0--(0)--|---2---0---2---0---|---2---0---0--(0)--
A---0--(0)--2---2---|---0--(0)--2---x---|---0--(0)--2---2---|---0--(0)--2---x---
E---x---x---3---0---|---x---x---3---4---|---x---x---0---3---|---x---x---3---4---

Second time through

e---0---2---3---3---|---0---2---3---3---|---0---2---3-----3---|---0---2---
B---1---3---3---3---|---1---3---3---3---|---1---3---3-----3---|---1---3---
G---2---2---0---0---|---2---2---0---0---|---2---2---0-----0---|---2---2---
D---2---0---0---2---|---2---0---0---2---|---2---0---0-----2---|---2---0---
A---0--(0)--2---2---|---0--(0)--2---2---|---0--(0)--2-----2---|---0--(0)--
E---x---x---3---0---|---x---x---3---0---|---x---x---3--2--0---|---x---x---

Chorus

e---0---2---0---2---
B---1---3---1---3---
G---0---0---2---2---
D---2---0---2---0---
A---3---2---0--(0)--
E---x--(0)--x---x---

Last verse ("we bend i break")

e---0---2---3---1---|---0---2---3---3---|---0---2---3-----3---|---0---2---
B---1---3---3--(0)--|---1---3---3---3---|---1---3---3-----3---|---1---3---
G---2---2---0---4---|---2---2---0---0---|---2---2---0-----0---|---2---2---
D---2---0---0--(0)--|---2---0---0---2---|---2---0---0-----2---|---2---0---
A---0--(0)--2---x---|---0--(0)--2---2---|---0--(0)--2-----2---|---0--(0)--
E---x---x---3---4---|---x---x---3---0---|---x---x---3--2--0---|---x---x---

Last chorus

e---0---2---0---2--------0---2---
B---1---3---1---3--------1---3---
G---0---0---2---2--(x2)--2---2---
D---2---0---2---0--------2---0---
A---3---2---0--(0)-------0--(0)--
E---x--(0)--x---x--------x---x---

Outro

e---0---0---3---1---|---0---2---3---
B---1---1---3--(0)--|---1---3---3---
G---0---2---0---4---|---0---2---0---
D---2---2---0--(0)--|---2---0---0---
A---3---0---2---x---|---3--(0)--2---
E---x---x---3---4---|---x---x---3---

Alternate way to play the G#m chord (in case you're having trouble)

e---x---
B---6---
G---4---
D--(0)--
A---x---
E---4---