- sweet -
- howie day -

- verse -
   g  d       f  c
e -3--2--2h3--3--3--|
b -3--3--3----1--1--|
g -0--2--2----2--0--|
d -0--0--0----3--2--|
a -x--0--0-------3--|
e -3----------------|
- pre chorus -
   em   g  d  a7
e -3----3--2--0--|-3--|
b -0h3--3--3--2--|-0--|
g -0----0--2--0--|-0--|
d -2----0--0--2--|-2--|
a -2----x--0--0--|-3--|
e -0----3--------|----|

- chorus -
   em  g   d        a7
e -3---3---2h3p2p0--0--|-----3--|
b -0---3---3--------2--|-0-1-1--|
g -0---0---2--------0--|-0-0-0--|
d -2---0---0--------2--|-2-2-2--|
a -2---x---0--------0--|-3-3-3--|
e -0---3---------------|--------|

transcribed - anthony page - 044287p@acadiau.ca