Trouble In Here - Howie Day
tab by Mike Ingram - nakedguy69@hotmail.com

Intro

e---0--------0---
B---3--------3---
G---4--------2---
D---4--------0--- x4
A---2--0--2--x---
E---x--------x---

Verse

e---0--------0--------2--(3)--0---
B---3--------3--------1---3---3---
G---4--------2--------2---0---2---
D---4--------0---(x3)-0---0---0---
A---2--0--2--x--------x---2---x---
E---x--------x--------x---3---x---

Chorus

e--(2)--3---0-3-2--(2)--0---0---
B--(2)--3---0------(2)--0---2---
G--(2)--0---0------(2)--1---2---
D---4---0---2--(x3)-4---0---2---
A---4---2---2-------4---2---0---
E---2---3---0-------2---0---x---

Break/Outro

e---0---0---0--(0)---
B---3---3---0--(0)---
G---4---2---1--(1)---
D---4---0---2--(0)---
A---2---x---2--(2)---
E---x---x---0--(0)---

Lead over the Break/Outro

e-------------------------
B---3p2--(x4)---5p3--(x4)-
G----4-----------4--------

and an octave higher at

e-------------------------
B---15p14--(x4)--17p15--(x4)-
G----16-----------16--------