watchtower/halloween (dmb style)
howie day
cb's 313 gallery 7.20.99
transcribed: anthony g page (agp@hdaee.net)
5.8.01

this tab is mostly for the jam parts, so the verses have been cut
to just the first line of each section

e |---------------------------------------------
b |---------------------------------------------
g |---------------------------------------------
d |---------------------------------------------
a |---------------------------------------------
E |-5~--5/--0-3-0-0-3-3-0h1--1-x-x-x-1--0h1/3---

e |---------------------------------------------
b |---------------------------------------------
g |---------------------------------------------
d |---------------------------------------------
a |---------------------------------------------
E |-5~--5/--0-3-0-0-3-3-0h1--1-x-x-x-1--x--3----

e |-------------------------------------------------------
b |-------------------------------------------------------
g |-------------------------------------------------------
d |-------------------------------------------------------
a |-------------------------------------------------------
E |-5----x----x-----3----x----x------1---0h1--1------3--3-
      there must be some kind of way     out of here

e |-------------------------------------------------------
b |-------------------------------------------------------
g |-------------------------------------------------------
d |-------------------------------------------------------
a |-------------------------------------------------------
E |-5----x----x-----3----x----x------1---0h1--1------3--3-
        said the    joker to the  thief

1:02

e |-0------------3---------3-------3---0---------------3---------3-----3---
b |-1------------0---------1-------0---1---------------0---------1-----0---
g |-2------------0---------2-------0---2---------------0---------2-----0---
d |-2------------0---------3-------0---2---------------0---------3-----0---
a |-0------------2-----------------2---0---------------2---------------2---
E |--------------3-----------------3-------------------3---------------3---
       no reason to get excited           the theif he kindly spoke

e |-0-------------3---------3---------3---0------------3-------------3------------3-
b |-1-------------0---------1---------0---1------------0-------------1------------0-
g |-2-------------0---------2---------0---2------------0-------------2------------0-
d |-2-------------0---------3---------0---2------------0-------------3------------0-
a |-0-------------2-------------------2---0------------2--------------------------2-
E |---------------3-------------------3----------------3--------------------------3-
       there are many here among us           who feel  that life is  but a joke

1:51

*rapid strumming

e |-0-------------3---------3---------3------0------3---------3---3-
b |-1-------------0---------1---------0------1------0---------1---0-
g |-2-------------0---------2---------0------2------0---------2---0-
d |-2-------------0---------3---------0------2------0---------3---0-
a |-0-------------2---------3---------2------0------2---------0---2-
E |---------------3---------1---------3-------------3-------------3-

e |-0------3---------3---------3------0------3---------3--------------3-
b |-1------0---------1---------0------1------0---------1--------------0-
g |-2------0---------2---------0------2------0---------2--------------0-
d |-2------0---------3---------0------2------0---------3--------------0-
a |-0------2---------0---------2------0------2---------0--------------2-
E |--------3-------------------3-------------3------------------------3-
       all along the watchtower          princess      kept the view

...and so on until 2:37

                                                                 *  * rapid
e |-0----------3-3--2--1---------1--3--0--------3-3--2--1--------1--3-------
b |-1--/x----3-3-3--2--1--/10---1--3--1------3-3-3--2--1--/10--1--3-------
g |-2--/x----3-4-4--3--2--/10---2--4--2------3-4-4--3--2--/10--2--4-------
d |-2--/x----3-5-5--4--3--/10---3--5--2---x--3-5-5--4--3--/10--3--5-------
a |-0--/x----3-5-5--4--3--/8----3--5--0---x--3-5-5--4--3--/8---3--5-------
E |-----5---3-3-3--2--1---------1--3------5--3-3-3--2--1--------1--3-------

2:46
e |-0----------3-3--2--1---------1--3--0-----/10--9---8---1--3-------
b |-1--/x----3-3-3--2--1--/10---1--3--1-----/12--11--10--1--3-------
g |-2--/x----3-4-4--3--2--/10---2--4--2-----/12--11--10--2--4-------
d |-2--/x----3-5-5--4--3--/10---3--5--2-----/12--11--10--3--5-------
a |-0--/x----3-5-5--4--3--/8----3--5--0-----/10--9---8---3--5-------
E |-----5---3-3-3--2--1---------1--3---------------------1--3-------

2:54                                                *  * rapid
e |-0--x----------------1--3----0--x----------------1--3------
b |-1--x--12--11--10---1--3----1--x--12--11--10---1--3------
g |-2--x--12--11--10---2--4----2--x--12--11--10---2--4------
d |-2--x--12--11--10---3--5----2--x--12--11--10---3--5------
a |-0--x--10--9---8----3--5----0--x--10--9---8----3--5------
E |----x----------------1--3-------x----------------1--3------

3:03                                                     * halloween 3:11
e |-0--x---------------------------0--x------------------0---------
b |-1--x--12--11--10-----10--12----1--x---12--11--10-----0---------
g |-2--x--12--11--10-----10--12----2--x---12--11--10-----1---------
d |-2--x--12--11--10-----10--12----2--x---12--11--10-----2---------
a |-0--x--10--9---8------8---10----0--x---10--9---8------2---------
E |----x------------------------------x------------------0---------

    Am        G            F       E
e |-0--0------3------------3-------0----
b |-1--0------0------------1-------0----
g |-2--2------0------------2-------1----
d |-2--2------0------------3-------2----
a |-0--0------2------------0-------2----
E |-----------3--------------------0----
    no        halloween  bury all

...continuing until 4:06

e |-12------10-------------8-----------8----10----
b |-12h13---12-------------10----------10---12----
g |-12h14---12-------------10----------10---12----
d |-12h14---12-------------10----------10---12----
a |-12------10-------------8-----------8----10----
E |-----------------------------------------------
            all along the watchtower

e |-12------10-------------8-----------8----10----
b |-12h13---12-------------10----------10---12----
g |-12h14---12-------------10----------10---12----
d |-12h14---12-------------10----------10---12----
a |-12------10-------------8-----------8----10----
E |-----------------------------------------------
            princess kept the view

e |-12----------10------------8-------------10---------------12---10------8------------------1---3-
b |-12h13-------12------------10------------12---------------13---12------10-----------------1---3-
g |-12h14-------12------------10------------12---------------14---12------10-----------------2---4-
d |-12h14-------12------------10------------12---------------14---12------10-----------------3---5-
a |-12----------10------------8-------------10---------------12---10------8------------------3---5-
E |------------------------------------------------------------------------------------------1---3-
        all the women all the women all the women came and went       and barefoot servants too

e |-0-------10----9-----8-----------8----10----
b |-1-------12----11----10----------10---12----
g |-2-------12----11----10----------10---12----
d |-2-------12----11----10----------10---12----
a |-0-------10----9-----8-----------8----10----
E |--------------------------------------------
    outside in the cold distance

e |-0-------10--------8-------1--3-----0-----------3------3---0--
b |-1-------12--------10------1--3-----1-----------0------1---0--
g |-2-------12--------10------2--4-----2-----------0------2---1--
d |-2-------12--------10------3--5-----2-----------0------3---2--
a |-0-------10--------8-------3--5-----0-----------2------0---2--
E |---------------------------1--3-----------------3----------0--
      a wild cat did  growl             two riders were approaching

                               * halloween 4:44
                               Am      G   F   E
e |--------0----3---3----0-----0--0----3---3---0---
b |--------1----0---1----0-----1--0----0---1---0---
g |--------2----0---2----1-----2--2----0---2---1---
d |--------2----0---3----2-----2--2----0---3---2---
a |--------0----2---0----2-----0--0----2---0---2---
E |-------------3--------0-------------3-------0---
   and the wind began to howl    halloween....

ends with halloween