You and A Promise - Howie Day
tab my Mike Ingram - nakedguy69@hotmail.com

Capo at 1st fret - live it's been without a capo

Intro

e---1---0---1---0--(1)-(0)--
B---3---3---3---3--(1)--2---
G---2---0---2---0---2---2---
D---0---0---0---0---3---2---
A--(0)--2--(0)--2---3---0---
E---x---3---x---3---1---x---

Picking over Intro

e----------0------------0-1p0--------
B--------3---3--------3-------3------
G------2------------2----------------
D--(0)----------(0)-------------(x3)-
A------------------------------------
E------------------------------------

Verse

e---1---0---0---3---|---1---0---0---
B---3---1---1---0---|---3---1---1---
G---2---2---0---0---|---2---2---0---
D---0---3---2---0---|---0---3---2---
A--(0)--x---3---2---|--(0)--x---3---
E---x---x---x---3---|---x---x---x---

Pre-chorus - ("she met him...")

e---x--(1)--0---3---|---x--(1)-(1)--
B---3--(1)--1---0---|---3--(1)-(1)--
G---3---2---0---0---|---3---2---2---
D---3---3---2---0---|---3---3---3---
A---1---3---3---2---|---1---3---3---
E---x---1---x---3---|---x---1---0---

Chorus

e---1---0---1---0--(1)-(0)--
B---3---3---3---3--(1)--2---
G---2---0---2---0---2---2---
D---0---0---0---0---3---2---
A--(0)--2--(0)--2---3---0---
E---x---3---x---3---1---x---

Bridge - ("and they say...")

e---x---1---0--------3---
B---3---1---1--------0---
G---3---2---0--------0---
D---3---3---2--(x3)--0---
A---1---3---3--------2---
E---x---1---x--------3---

Outro

e---1---0---
B---3---3---
G---2---0---
D---0---0---
A--(0)--2---
E---x---3---